a b c d e f g h i j k l m n o p q r s t u v w x y z 0-9

El Circo Romano

La Renga

			
Intro 

Melodia cirquera
G--------------
D--------------
A--10s2--------
E--------------x16

G---------
D---------
A--3-5----
E---------x6

G----------------------
D----------------------
A----------------------
E-333333s5--3---3---3--

G---------------------
D---------------------
A----2-3-4-5-555555---
E--3------------------x5

Verso Necrofilia...

G---------------------
D---------------------
A----2-3-4-5-555555---
E--3------------------x4

Estribillo Y la demencia...

G---------------------------------------------------
D---------------------------------------------------
A---------------------------------------------------
E--555-0-3-5-0-555-777-0-5-7-0-777-5-333333s5-------

Intervalo

G------------
D------------
A---555555---
E------------

G---------------------
D---------------------
A----2-3-4-5-555555---
E--3------------------x4

Verso Mariposa...

G---------------------
D---------------------
A----2-3-4-5-555555---
E--3------------------x4

Estribillo Y la demencia...

G---------------------------------------------------
D---------------------------------------------------
A---------------------------------------------------
E--555-0-3-5-0-555-777-0-5-7-0-777-5-333333s5-------

Intervalo

G---------
D---------
A--3-5----
E---------x6

Solo de guitarra

G------------
D------------
A---555555---
E------------

G---------------------
D---------------------
A----2-3-4-5-555555---
E--3------------------x4

G---------------------------------------------------
D---------------------------------------------------
A---------------------------------------------------
E--555-0-3-5-0-555-777-0-5-7-0-777-5-333333s5-------

G----------------------------
D----------------------------
A-555-7-8-10-8-10-10-8-------
E----------------------------x4

G------------------
D------------------
A------------------
E----333333s5------

Solito de bajo

G-----2-4-------------
D-0-4---------00-2h3--
A-----------2---------
E---------3-----------x3

G-----2-7----------------
D-0-4-----55-44-33-2-----
A------------------------
E------------------------

G-----2-4-------------
D-0-4---------00-2h3--
A-----------2---------
E---------3-----------x10

¿ A donde vá...

G-----2-4-------------
D-0-4---------00-2h3--
A-----------2---------
E---------3-----------x4

Más masacre...

G------------
D------------
A---555555---
E------------

G---------------------
D---------------------
A----2-3-4-5-555555---
E--3------------------x4

Estribillo Y la demencia...

G---------------------------------------------------
D---------------------------------------------------
A---------------------------------------------------
E--555-0-3-5-0-555-777-0-5-7-0-777-5-333333s5-------

G----------------------------
D----------------------------
A-555-7-8-10-8-10-10-8-------
E----------------------------x4

Final

G----------------------------
D----------------------------
A------------2-3-4-5---------
E-3--3--3--3-----------------

Fuente original ATAME [www.atame.org]
Colaborador original: Alejandro Wasil [alewasil@hotmail.com]

Fuente: tusacordes.com