a b c d e f g h i j k l m n o p q r s t u v w x y z 0-9

El Cielo Del Desengaño

La Renga

			
SOLO DE GUITARRA

e-----------------------------------------------------------------------
B-------------------------------------------7-8-7-----------------------
G---------------0-----5-4p2-4--2----7--9--9-------9-7--7--7-7-6-6p4-6-6-
D-------2-0-2-4---4-----------------------------------------------------
A-2-1-2-----------------------------------------------------------------
E-----------------------------------------------------------------------
      
                                                                        
e----------------------5-7---10-7-10s12-12-10-9-10-9-9h10-9-9-8-7-8-7-5-7/mantiene estirada
B-7-7-7h8-7-5-7--8-7-8---------------------------------------------------------------
G------------------------------------------------------------------------------------
D------------------------------------------------------------------------------------
A------------------------------------------------------------------------------------
E------------------------------------------------------------------------------------


e---------------12-12-12p10----12--12-12/-----10-----------------------------------
B---------------------------12-------------12----12-12p10---8-10-12--12-8h10-8-----
G-12-12--12-12--------------------------------------------9--------------------9---
D----------------------------------------------------------------------------------
A----------------------------------------------------------------------------------
E----------------------------------------------------------------------------------


e---------------12p10----12-17/-17-17-17-17/-17/---15-17-15------------------
B-10h12-12------------12------------------------------------15-17--12h13-12--
G----------12s9--------------------------------------------------------------
D----------------------------------------------------------------------------
A----------------------------------------------------------------------------
E----------------------------------------------------------------------------

                                                 
e-----------10-12-10----------------------------------------------------------------
B--13-12-13----------12h13-12----10-10-12-12-10--12--mantiene-----------------------
G-----------------------------12---------------------------------------------0------
D--------------------------------------------------------------------2-0-2-4---4----
A--------------------------------------------------------------2-1-2----------------
E-----------------------------------------------------------------------------------


e-------------------------------------------------------------------------------------
B----------------------7-8-7-----------------------7-7-7h8p7-5-7-7h8p7-5-7-7h8p7-5--------------------------
G--5-4p2-4/----7--9--9-------9-7--7--7-7-6-6p4-6-6---------------------------------------------------------------------
D-------------------------------------------------------------------------------------
A-------------------------------------------------------------------------------------
E-------------------------------------------------------------------------------------
 
  
 !_____rápido______!
e!-----------------!-----5-7-5------------------------------------------5-7-12-------
B-8p7p5-8p7p5-8p7p5--5-8-------7h8p7h8-7---7h8-7-5-5/---5---5---------7--------------
G---------------------------------------------------------7-----7p5-7----------------
D------------------------------------------------------------------------------------
A------------------------------------------------------------------------------------
E------------------------------------------------------------------------------------


h: hammeron
p: pulloff
/: estira
s: slide

Fuente original ATAME [www.atame.org]
Colaborador original: Victor Amarillo [dosmasdostres@fullzero.com.ar]

Fuente: tusacordes.com