a b c d e f g h i j k l m n o p q r s t u v w x y z 0-9

El Cielo Del Desengaño

La Renga

			
Intro
d|---------------------------|
A|---------------------------|
F|---------------------------|
C|-0^2--2-1-0----------------|
G|-------------2-1-0---------|  
D|--------------------0------|
 
Arpegios con base en 
Em	    G	         A        A#
  Como esas nubes que ahora ves,
Em	    G		  A	      A#
  que van regando de vida los campos,
Em       G	  A	    A#
  así lloraba de vez en vez,
Em	 G		A		
  la tristeza del desengaño.

E5          G5       A5    A#5
Haberse visto en la soledad,
E5          G5       A5    A#5
esa que aman los sabios,
E5          G5       A5    A#5
hoy se ha nublado para llorar,
E5          G5       A5    A#5
todo el cielo que te he confiado.

N.C.
Como un ciego...
E5		G5	 A5	E5	
  que apunta al ruido de mi cabeza,punteo1
	C5	     G5			E5
  como todo, como siempre, como es sin ver...punteo2

Hacia el abismo de sed,
que no calma el agua, ni las lágrimas,
      C5		G5	    A5		B5
como todo, como siempre, como es sin ver.
d|-----------------------------------------------------------------------2^3-2-0-2-3-2-3-5-7-|
A|-----------------------------4-4^5s6s7-6-3-3-3-3-2-2-2-0-2-0-2-2s0-2s3---------------------|
F|-------------------4-4-3-4-3---------------------------------------------------------------|
C|-----------0-1-2-3-------------------------------------------------------------------------|
G|-0-1-2-3-4---------------------------------------------------------------------------------|  
D|-------------------------------------------------------------------------------------------|

d|-2^3-2-0-2-3-2-3-5-7-7-7s10s7-10-7s10-10-10-9-10-9-9-9-9s7-7-7^6-7b-7b-N.C.-N.C.-12b-12b---|
A|-------------------------------------------------------------------------------------------|
F|-------------------------------------------------------------------------------------------|
C|-------------------------------------------------------------------------------------------|
G|-------------------------------------------------------------------------------------------|  
D|-------------------------------------------------------------------------------------------|

d|--12^11b-12b-12bs8-9-8-6-5s8s5s8s5-5-0--12s17-14-17b-17b-17bs12---6^7-7s6-9-7--6^7-6-7-7s6-|
A|-------------------------------------------------------------------------------------------|
F|-------------------------------------------------------------------------------------------|
C|-------------------------------------------------------------------------------------------|
G|-------------------------------------------------------------------------------------------|  
D|-------------------------------------------------------------------------------------------|

d|--6-6-7-7-7-7-7---7-7-7-7-7-7-7-7-7-7-7-7--------------------------------------------------|
A|-------------------------------------------------------------------------4-4^5s6s7---------|
F|---------------------------------------------------------------4-4-3-4-3-------------------|
C|-------------------------------------------------------0-1-2-3-----------------------------|
G|---------------------------------------------0-1-2-3-4-------------------------------------|  
D|-------------------------------------------------------------------------------------------|

d|---------------------------------2^3-3^2-3^2-2-0-2-3-2-3-5-7-2^3^2-2^3-2-0-----------------|
A|-6-3-3-3-3-2-2-2-0-2-0-2-2s0-2s3-------------------------------------------7s4s7-7s4s5--3s5|
F|-------------------------------------------------------------------------------------------|
C|-------------------------------------------------------------------------------------------|
G|-------------------------------------------------------------------------------------------|  
D|-------------------------------------------------------------------------------------------|

d|-3s5-7b-------------|
A|--------------------|
F|--------------------|
C|--------------------|
G|--------------------|  
D|--------------------|

Como esas nubes que ahora ves,
que van regando de vida los campos,
así lloraba de vez en vez,
todo el cielo del desengaño.

Punteo1
d|---------------------|
A|-------3-------------|
F|-4s3-4---4-4-4s3-----|
C|---------------------|
G|---------------------|  
D|---------------------|
Punteo2
d|--4s7s4--7b----------|
A|---------------------|
F|---------------------|
C|---------------------|
G|---------------------|  
D|---------------------|

Fuente original ATAME [www.atame.org]
Colaborador original: José Videla [marcoskipps_prosk8er@hotmail.com]

Fuente: tusacordes.com