a b c d e f g h i j k l m n o p q r s t u v w x y z 0-9

El Cielo Del Desengaño

La Renga

			
INTRO: chizzo


riff 1: haberse visto..
1)----------------------------------------|
2)----------------------------------------|
3)----------------------------------------|
4)-0--0--0-0-3--3--3-3--5-5--5-5-5-5-5/3--|

riff 2: como un ciego..
1)-------|---------------------|
2)-------|---------------------|
3)-------|---------------------|
4)--0-0--|--3--5--0-0-0-0-0-0--|

riff 3: como todoo..
1)-----------------------------------------|
2)-----------------------------------------|
3)--3-3-3----------------------------------|
4)----------5-5-5---3-3-3-3-3-3-3-3-3-3-3--|

repite riff 2: hacia el avismo..
1)---------------------|
2)---------------------|
3)---------------------|
4)--3--5--0-0-0-0-0-0--|

riff 4: y las lagrimas..
1)--------------------|
2)--------------------|
3)--5--5-5-5-5--7--5--|
4)--------------------|

repite el riff 3

durante el punteo se hace todo lo mismo desde el principio
espero q les sirva de algo... suerte!

Fuente original ATAME [www.atame.org]
Colaborador original: mariano muller =============================== www.atame.org =============================== Este fichero es trabajo propio de su transcriptor y representa su interpretación personal de la canción. El usuario se compromete a utilizar este material únicamente para su aprendizaje y estudio personal. Para poder incluir este fichero en otro sitio Web, es necesario mencionar el origen del mismo [www.atame.org]

Fuente: tusacordes.com