a b c d e f g h i j k l m n o p q r s t u v w x y z 0-9

El Cielo Del Desenga¤o

La Renga

			
Intro:
d|---------------------------|
A|---------------------------|
F|---------------------------|
C|-0-2--2-1-0----------------|
G|-------------2-1-0---------|
D|--------------------0------|

quedan mejores arrepegiados
MIm          SOL               LA      A#
  Como esas nubes que ahora ves,
MIm          SOL            LA           A#
  que van regando de vida los campos,
MIm       SOL        LA           A#
  así lloraba de vez en vez,
MIm       SOL            LA
  la tristeza del desengaño.

[MIm,SOL,LA]
Haberse visto en la soledad,
esa que aman los sabios,
hoy se ha nublado para llorar,
todo el cielo que te he confiado.

Como un ciego...Mim Mim
  silencio        SOL        LA      MIm
  que apunta al ruido de mi cabeza,
d|---------------------
A|-------3-------------
F|-4s3-4---4-4-4s3-----
C|---------------------
G|---------------------
D|---------------------
      DO           SOL             MIm
como todo, como siempre, como es sin ver...
d|--4s7s4--7b----------
A|---------------------
F|---------------------
C|---------------------
G|---------------------
D|---------------------
 SOL       LA       MIm
Hacia el abismo de sed,
       DO       SOL          MIm
que no calma el agua, ni las lágrimas,
      C            G          A
como todo, como siempre, como es sin ver.

Solo:
e-----------------------------------------------------------------------
B-------------------------------------------7-8-7-----------------------
G---------------0-----5-4p2-4--2----7--9--9-------9-7--7--7-7-6-6p4-6-6-
D-------2-0-2-4---4-----------------------------------------------------
A-2-1-2-----------------------------------------------------------------
E-----------------------------------------------------------------------

e----------------------5-7---10-7-10s12-12-10-9-10-9-9h10-9-9-8-7-8-7-5-7/mantiene estirada
B-7-7-7h8-7-5-7--8-7-8---------------------------------------------------------------
G------------------------------------------------------------------------------------
D------------------------------------------------------------------------------------
A------------------------------------------------------------------------------------
E------------------------------------------------------------------------------------

e---------------12-12-12p10----12--12-12/-----10-----------------------------------
B---------------------------12-------------12----12-12p10---8-10-12--12-8h10-8-----
G-12-12--12-12--------------------------------------------9--------------------9---
D----------------------------------------------------------------------------------
A----------------------------------------------------------------------------------
E----------------------------------------------------------------------------------

e---------------12p10----12-17/-17-17-17-17/-17/---15-17-15------------------
B-10h12-12------------12------------------------------------15-17--12h13-12--
G----------12s9--------------------------------------------------------------
D----------------------------------------------------------------------------
A----------------------------------------------------------------------------
E----------------------------------------------------------------------------

e-----------10-12-10----------------------------------------------------------------
B--13-12-13----------12h13-12----10-10-12-12-10--12--mantiene-----------------------
G-----------------------------12---------------------------------------------0------
D--------------------------------------------------------------------2-0-2-4---4----
A--------------------------------------------------------------2-1-2----------------
E-----------------------------------------------------------------------------------

e-------------------------------------------------------------------------------------
B----------------------7-8-7-----------------------7-7-7h8p7-5-7-7h8p7-5-7-7h8p7-5----
G--5-4p2-4/----7--9--9-------9-7--7--7-7-6-6p4-6-6------------------------------------
D-------------------------------------------------------------------------------------
A-------------------------------------------------------------------------------------
E-------------------------------------------------------------------------------------

e----------------------5-7-5------------------------------------------5-7-12-------
B-8p7p5-8p7p5-8p7p5--5-8-------7h8p7h8-7---7h8-7-5-5/---5---5---------7--------------
G---------------------------------------------------------7-----7p5-7----------------
D------------------------------------------------------------------------------------
A------------------------------------------------------------------------------------
E------------------------------------------------------------------------------------

h: hammeron
p: pulloff
/: estirar
s: slide

[MIm,SOL,LA]
Como esas nubes que ahora ves,
que van regando de vida los campos,
así lloraba de vez en vez,
todo el cielo del desengaño.


Un Saludo Grande Para Zirsi y Los Pibes Del DAOM...Fuente: Tus acordes