a b c d e f g h i j k l m n o p q r s t u v w x y z 0-9

Dioses De Terciopelo

La Renga

Dm
A
G
Gm
			
Sobre Dm A G G

e|-----------5--------8-5-----------------| 
B|-\5-6--------6-----------9-8-6-5p6-----| 
G|-------7--------7-----------------------| 
D|----------------------------------------| 
A|----------------------------------------| 
E|----------------------------------------| 

----------5--------8-------5--|-----------5----------------|| 
-5-6--------6--------8-9------|-\5-6--------6------4^-~~-|| 
------7--------7---------------|-------7--------7----------|| 
-------------------------------|----------------------------|| 
-------------------------------|----------------------------|| 
-------------------------------|----------------------------|| 


Gm                    Dm
Cuando el cielo purgue a tu alrededor 
Gm           Dm 
y la tierra se abra otra vez 
Gm                  Dm 
cuando haya huído ya el último tren, 
A#      A 
conmigo te llevaré. 

Riff 
Gm                      Dm
Cuando el agua bese el temblor de tus pies, 
Gm                Dm
y la muerte baile a nuestro alrededor. 
Gm              Dm
cuando todo sea olvido otra vez, 
A#   A 
yo te recordaré. 

D5 
Sólo el amor sostiene el deseo, 
G5 
desde el torbellino a tu corazón; 
D5 
nada lo detiene, destilando fuego, 
G5 
en tus ojos llameantes yo veo el sol. 
D5 
Sólo el amor sacrifica tu anhelo, 
G5 
todo el caramelo cristalizó. 
D5 
Sueño de dioses de terciopelo, 
A5 
pidiendo que sólo, sólo... 
A5 
salves tu amor. 
[BIS] 

Riff 

G5 A#5 A5 A5
G5 A#5 A5 A5 


D5 C5 A5 G5 
D5 C5 A5 G5 

Estribillo 

D5 F5 G5 [baja G#5 G5 F5] 
D5 F5 G5 [baja G#5 G5] 
D5 F5 G5 [baja G#5 G5 F5] 
D5 F5 G5 [baja G#5 G5] 

Cuando seamos alimento de la estrella por venir, 
que en la vasta soledad se haya tenido que perder. 
Cuando ya desista el lugar en donde estés, 
¡yo te encontraré! 

Riff 

FINAL Dm

Fuente: Tusacordes