a b c d e f g h i j k l m n o p q r s t u v w x y z 0-9

Detonador De Sueños

La Renga

			
Es una boludez el solo este, lo saque a oido con criolla
y estaba bastante bien. Cualquier cosa lo tengo en Guitar pro.

Slide out upawards: /
Bend estirar: ^
PreBend: ^=
Vibrato: ~
Silencio: []

E|---------------------------------------------------------------------------------------
B|--8--8-10-8---8--8-10-8---8--8-10-8---8-8/-8/--------------------------------------------
G|------------9-----------9-----------9--------------------------------------------------
D|---------------------------------------------------------------------------------------
A|---------------------------------------------------------------------------------------
E|---------------------------------------------------------------------------------------

E|------------------------------------------------------------------------------------------
B|--10--10-10-12-10----10--10-10-12-10----10--10-10-12-10----10--10-10-12-10----10?10/--10/--
G|------------------11-----------------11-----------------11-----------------11-------------
D|------------------------------------------------------------------------------------------
A|------------------------------------------------------------------------------------------
E|------------------------------------------------------------------------------------------

E|------10-10-10-10-10------10-10-10-10-10------10-10-10-10-10------10-10/----------------
B|--12^-----------------12^-----------------12^-----------------12^----------------------
G|---------------------------------------------------------------------------------------
D|---------------------------------------------------------------------------------------
A|---------------------------------------------------------------------------------------
E|---------------------------------------------------------------------------------------
                                                                    wah wah
E|--10^-12-12-12-12-12--10^-12-12-12-12-12--10^-12-12-12-12-12--10^-10/-10/----------------
B|---------------------------------------------------------------------------------------
G|---------------------------------------------------------------------------------------
D|---------------------------------------------------------------------------------------
A|---------------------------------------------------------------------------------------
E|---------------------------------------------------------------------------------------

E|-------------------------------8----------8---8^-8^-8^-8^-^8^--------------------------
B|-10^--10^--10^=--10^----8-10-8---10-8-8-8----------------------10[]-8[]----------------
G|------------------------------------------------------------------------9~-9-7-9-7~----
D|---------------------------------------------------------------------------------------
A|---------------------------------------------------------------------------------------
E|---------------------------------------------------------------------------------------

Fuente original ATAME [www.atame.org]
Colaborador original: ale de la fuente [ale182_666@hotmail.com]

Fuente: tusacordes.com