a b c d e f g h i j k l m n o p q r s t u v w x y z 0-9

Destino Ciudad Futura

La Renga

			
primero les kiero aclarar ke todas mis tablaturas son para guitarra electrica i casi siempre con distorcion asike si no cuentan con una viola electrica les recomiendo ke todas mis tab no sean vistas xq solo perderan su tiempo al igual ke yo lo acia durante mis tiempos de principiante con guitarra criolla. bueno aora les va una cancion dificil de encontrar en internet. la sake de oido i suena bastante bn. lo unico no sake el solo ni el interludio

riff 1
|-----------------------------------------------------------------|
|-----------------------------------------------------------------|
|-----------------------------------------------------------------|
|-2-2------------------2-2----------------------------------------|
|-2-2------------------2-2----------------------------------------|
|-0-0-3-3-0-3-0-0-3----0-0-3-3-0-3-0-0-3--------------------------|
este riff es tocado durante casi toda la cancion

riff 2 |-----------------------------------------------------------------|
|-----------------------------------------------------------------|
|-----------------------------------------------------------------|
|--7--7--7---5--5--5---9--9--9---7--7--7--------------------------|
|--7--7--7---5--5--5---9--9--9---7--7--7--------------------------|
|--5--5--5---3--3--3---7--7--7---5--5--5--------------------------|
este ultimo riff es para el "estribillo", la cantidad de veces ke se ace el acorde son varias pero no las puse x una cuestion ke depende de la velocidad en ke esten tocando esta cancion i la velocidad con la ke manejan la pua o el rasguido

Fuente: Tusacordes