a b c d e f g h i j k l m n o p q r s t u v w x y z 0-9

Desnudo Para Siempre

La Renga

			
Hola a todos...
aquí está el tema que le da el título al disco 
Despedazado por mil partes, esta fácil ya que no tiene
complicaciones, practíquenlo, les va a salir...
escuchen el tema para saber el ritmo de los Riffs y para guiarse

                                                                                            x2                    
                                                                                             ---------|----------
  Riff 1               Riff 2               Riff 3                Riff 4                    /                   
1|--------------------|-------------------|---------------------|--------------------------/------------------------->>
2|--------------------|-------------------|---------------------|----------------------4--/--------------------4----->>
3|--------------------|-------------------|---------------------|-------------9-8-74----|-----------9-8-74-------|-->>
4|-----5--3---8-------|------3--2---5/*---|-----3--7--7--7--7---|----4--3--2-------------|----4--3--2--------------|-->>
5|--2-----------------|---3---------------|---3----7--7--7--7---|-4---------------------|-4----------------------|-->>
6|--------------------|-------------------|--------5--5--5--5---|------------------------|-------------------------|-->>
                       Riff 5                                                 Riff 6                 Riff 7
<<---------------|   |---------------------------------------------------|  |-------------------|  |-------------|  
<<-----------4---|   |----------------4-------------4---6--4--3--2--1----|  |--------------2----|  |--4-3-2------| 
<<--9-8-74------|   |------5------5---------5---5-----------------------|  |------------2------|  |-------------|
<<---------------|   |----5----------------5-----------------------------|  |------5--4---------|  |-------------|
<<---------------|   |---------5---------------5-------------------------|  |--0-5--------------|  |-------------|
<<---------------|   |---------------------------------------------------|  |-------------------|  |-------------|

/slide
tocar y esperar que se apage el sonido

* aca el slide empieza en el 5° traste y se pierde 
sin llegar a ninguna nota

INTRO: Riff 1 x4 Riff 2 x3 Riff 3 Riff 4


B           E
La noche aspira
       B              E     
A guardarme algún misterio
B             E                      
Y como un extraño 
 B           E 
salgo a caminar
         B            E
Por las calles silenciosas
       B           E
Del suburbio va mi alma
    B              E
Solitaria entre el mundo 
      B          E         
Y las veredas viejas.


INTERMEDIO: Riff 5           

D                                        A   Riff 6
  Buenas noches me digo y me invito a beber.
                                  A   Riff 6
Estamos solos me dije y te advierto.
                              A    Riff 6
De nada sirve mentirse a uno mismo
                                          A
El propio espejo y la puerta saber quien soy
       D               B      
Se abrió y me dejó desnudo para siempre.

INTRO
                                          Riff 7
Salí por el paso mas metálico de la noche
a un viaje
de encuentro con mi extraño
y la magia cautiva de su interior
detonó la bomba
mas preciada de los sentimientos
al rozar con mi alma.

INTERMEDIO: Riff 5

Buenas noches me digo y me invito a beber.
Estamos solos me dije y te advierto.
De nada sirve mentirse a uno mismo
El propio espejo y la puerta saber quien soy
Se abrió y me dejó despedazado por mil partes.

Solo de saxo 
       

Buenas noches me digo y me invito a beber.
Estamos solos me dije y te advierto.
De nada sirve mentirse a uno mismo
El propio espejo y la puerta saber quien soy
Se abrió y me dejó desnudo para siempre.

ACORDES:               
 C:  x35553   
 D:  xx0232     
 E:  022100     
 A:  x02220   
 Bb: x13331 


CHAU,GRACIAS POR TODO DE TODO CORAZÓN

SUERTE

Fuente original ATAME [www.atame.org]
Colaborador original: matias perez [matiaselrebelde@hotmail.com]

Fuente: tusacordes.com