a b c d e f g h i j k l m n o p q r s t u v w x y z 0-9

Dementes En El Espacio

La Renga

			
Hola acá esta Dementes en el espacio:

INTRO

e|----------------------------------------|
B|----------------------------------------|
G|----------------------------------------|
D|----------------------------------------|
A|---0-5-7-8--0-5-7-8--0-5-7-8--0-5-7-8---|
E|---0-3-5-6--0-3-5-6--0-3-5-6--0-3-5-6---|

INTERMEDIO:

|-------------------------------------------------|
|-------------------------------------------------|
|-------------------------------------------------|
|-------------------------------------------------|
|---5-0-5-7--5-0-5-7--5-0-5-7--5-0-5-7-77777777---|
|---3-0-3-5--3-0-3-5--3-0-3-5--3-0-3-5-55555555---|

MIm
Y vamos enloqueciendo abordo de un planeta, 
que gira como perdido en el abismo indiferente,
del espacio y hasta siempre y para todos lados,
de la locura, de la locura, en donde nada esta apoyado.

INTERMEDIO

MIm
En el insignificante mundo que me confunde,
en la conquista de mi cielo en donde ya no tengo nada,
en la intocable profundidad de la eterna línea redonda,
en donde siempre los mismos se desfondan.

INTERMEDIO

solo de saxo y trompeta:

MIm
En donde el tiempo pasara por siempre,
y yo sin tiempo para nada, 
en el cruel navio,
sin las costas del oceano,
en el afuera mismo de mi adentro adentro,
en el rumbo fijo sin rumbo, en las vueltas y vueltas, dando tumbos.


SOLO

INTERMEDIO

MIm
Y seguimos enloqueciendo,
abordo de un planeta,
que gira como perdido en el abismo indiferente,
del espacio y hasta siempre,
y para todos lados, 
de la locura de la locura en donde nada esta apoyado,   apoyaaaado.

Fuente original ATAME [www.atame.org]
Colaborador original: MATIAS [laesquinademibarrio@hotmail.com]

Fuente: tusacordes.com