a b c d e f g h i j k l m n o p q r s t u v w x y z 0-9

Debbie El Fantasma

La Renga

			
Intro

G----------------------
D----------------------
A--------5-0-4-5-4------
E--5--3----------------x2

G----------------------------------
D----------------------------------
A--------------555-0-4-5-55555-4---
E--55555-33333---------------------x2

Verso Ella es...

G----------------------------------
D----------------------------------
A--------------555-0-4-5-55555-4---
E--55555-33333---------------------x8

une así al estribillo

G-----------------
D-----------------
A-7-5-------------
E-----7-5-3-------

Estribillo Y me asfixió...

G---------------------------------------------------
D---------------------------------------------------
A----------------------------------555-0-4-55-7-5---
E-33333333-1-2-3333333-1-2-3333333----------------7-

G------------------------------------------------------------
D------------------------------------------------------------
A----------------------------------55-555--------------------
E-33333333-1-2-3333333-1-2-3333333--------5-555555-333333-5--

Solo de Guitarra

G----------------------------------
D----------------------------------
A--------------555-0-4-5-55555-4---
E--55555-33333---------------------x4

G-----------------
D-----------------
A-7-5-------------
E-----7-5-3-------

Estribillo ¿Y como es eso...

G---------------------------------------------------
D---------------------------------------------------
A----------------------------------555-0-4-55-7-5---
E-33333333-1-2-3333333-1-2-3333333----------------7-

G------------------------------------------------------------
D------------------------------------------------------------
A----------------------------------55-555--------------------
E-33333333-1-2-3333333-1-2-3333333--------5-555555-333333-5--

En esta parte sube un tono

G-----------------------------------------
D-----------------------------------------
A---------------777---6-7-777777-6--------
E-777777-555555-----7---------------------x2

Verso Ella es...

G-----------------------------------------
D-----------------------------------------
A---------------777---6-7-777777-6--------
E-777777-555555-----7---------------------x4

...con su piel..

G-------------
D--444444-----
A-------------
E-------------

...fresca...

G------------------------------------------------------------
D------------------------------------------------------------
A--555555----------------555555-----------5555-0-4-5-55555-4-
E---------5555555-333333--------5555-3333--------------------

G----------------------------------
D----------------------------------
A--------------555-0-4-5-55555-4---
E--55555-33333---------------------

Final

G-----------------------------------
D-----------------------------------
A--------------5-55555-77777777-----
E--55555-33333------------------5---

G-----------------------------------
D-----------------------------------
A-5555555555555555555555555--5h0--
E-----------------------------------

Fuente original ATAME [www.atame.org]
Colaborador original: Alejandro Wasil [alewasil@hotmail.com]

Fuente: tusacordes.com