a b c d e f g h i j k l m n o p q r s t u v w x y z 0-9

Cuando Vendran

La Renga

			
INTRO;
GUITARRA: sin distorcion
           FA#5                     LA5                          FA#5        LA5
e|--------------------------|-------------------------------|-----------|-----------------------|
B|--------------------------|-------------------------------|-----------|-----------------5-----|
G|--------------------------|--------2-2-------------2~-2-|------FA#5-|--------2-222--5-2-|
D|--------4---------------|--------2-2--4p2--2--2h4---2-|-----------|--------2-222----2-|
A|--4p3-0-4-4-x-4-4-x--4-4|-4p3-0--0-0--0p0--0----------|4p3-0------|-4p3-0--0-000----0-|
E|--------2-2-x-2-2-x--2-2|-------------------------------|-----------|-----------------------|

Y despues
           FA#5                     LA5                          FA#5                     LA5
e|--------------------------|------------------------------|------------------------|-----------|
B|--------------------------|------------------------------|------------------------|-----------|
G|--------------------------|--------2-2---------------2~|------------------------|-------2--#|
D|--------4---------------|--------2-2--4p2--2--2h4----|------4---------------|-------2---|
A|--4p3-0-4-4-x-4-4-x--4-4|-4p3-0--0-0--0p0--0---------|4p3-0-4-4-x-4-4-x-4-4-|4p3-0--0---|
E|--------2-2-x-2-2-x--2-2|------------------------------|------2-2-x-2-2-x-2-2-|-----------|

BAJO:                     FA#           LA              FA#                   LA
G|--------|------|-------------|-------------|------------------------|-------------------------|
D|---#----|---#--|-------------|-------------|------------------------|-------------------------|
A|--------|------|-4p3--0------|-4p3--0------|-4p3--0-----------------|-4p3--0------------------|
E|--------|------|---------2-|--------/5-|-------2-2-0-2-2-0-2-2|--------5-5-3-5-5-3-5-5|
                FA#                         LA                  FA#                   LA
G|------------------------|-------------------------|------------------------|-----------|
D|------------------------|-------------------------|------------------------|-----------|
A|-4p3--0-----------------|-4p3--0------------------|-4p3--0-----------------|-4p3--0----|
E|-------2-2-0-2-2-0-2-2|--------5-5-3-5-5-3-5-5|-------2-2-0-2-2-0-2-2|---------5-|


[SILENCIO]


VERSO 1:

GUITARRA:
  RIFF 1                     RIFF2
e|------------------|     |-----------------------------|
B|------------------|     |-----------------------------|
G|-5b---------------|     |----------------------#------|
D|----7p5h7-7-7-5-7/|     |-----------------------------|
A|----------7-7-5-7/|     |--7-7-5--7-7--5----7---------|
E|------------------|     |--5-5-3--5-5--3----5---------|

BAJO: arreglo  
   ______________________________________________X2_________________________________________
  |           LA            SI                         SOL        RE           LA           |    
G|--------------------|------------------------|-------------|-------------|--------------------|
D|--------------------|------------------------|-------------|-------------|--------------------|
A|--------------------|-2-x-2-2-x-0-22-33-44-55|-------------|-5-x-5-5-x--5|--------------------|
E|-5-x-5-5-x-5-5-5-3-5|------------------------|-3-x-3-3-x--3|-------------|55-3-55-3-55-3-5-5|

 arreglo  LA            SI                         SOL        RE             LA
G|--------------------|------------------------|-------------|-------------|---------------|
D|--------------------|------------------------|-------------|-------------|------------#--|
A|--------------------|-2-x-2-2-x-0-22-33-44-55|-------------|-5-x-5-5-x--5|---------------|
E|-5-x-5-5-x-5-5-5-3-5|------------------------|-3-x-3-3-x--3|-------------|55-3-55-3-5----|

lA5                                SI5
Es que la muerte esta tan segura de vencer, 
           SOL5         RE5         LA5+RIFF1 
que nos da toda una vida de ventaja. 
 LA5                                    SI5 
Tu empresa lider funciona bien en el caos 
        SOL5           RE5         LA5+RIFF1 
inventando analgesicos para poder seguir 
LA5
Cuando el mundo no tiene respuesta 
      SI5 
hoy se vuelve incomprensible, 
        SOL5       RE5           RIFF2
yo sigo aca, insoportablemente vivo. 



PUENTE:
GUITARRA :
           FA#5                     LA5                          FA#5        LA5
e|--------------------------|-------------------------------|-----------|-----------------------|
B|--------------------------|-------------------------------|-----------|-----------------5-----|
G|--------------------------|--------2-2-------------2~-2-|------FA#5-|--------2-222--5-2-|
D|--------4---------------|--------2-2--4p2--2--2h4---2-|-----------|--------2-222----2-|
A|--4p3-0-4-4-x-4-4-x--4-4|-4p3-0--0-0--0p0--0----------|4p3-0------|-4p3-0--0-000----0-|
E|--------2-2-x-2-2-x--2-2|-------------------------------|-----------|-----------------------|

BAJO:       FA#                         LA                  FA#                   LA
G|-----------------------|-----------------------|----------------------|-----------------------|
D|-----------------------|-----------------------|----------------------|-----------------------|
A|-4p3-0-----------------|-4p3-0-----------------|4p3-0-----------------|4p30-------------------|
E|------2-2-0-2-2-0-2-2|------5-5-3-5-5-3-5-5|-----2-2-0-2-2-0-2-2|----55-3-55-3-55-3-55|


VERSO 2: igual

Si del principio hubiera aprendido a ser un animal 
hoy tendria un instinto noble a cambio de esta pena 
y si la ruta me va dejando sin aliento, 
sera que un buscador nunca llegara a destino. 
Cuando el mundo no tiene respuesta 
o se vuelve incomprensible, 
recuerda que un guerrero toma todo como un desafio. 


PUENTE 2:
GUITARRA :  FA# *                     LA5
e|----------------------------|---------------------------------|--------|-------|------------|
B|----------------------------|---------------------------------|--------|-------|------------|
G|----------------------------|---------2---5-5p4-----2-2-4-2~2~|--FA#-*-|-------|--engancha--|
D|--------4----------2-2~-4~--|---------2---------2h4-----------|--------|-------|---con------|
A|-4p3-0--4--0-2-3-4----------|-4p3-0---0-----------------------|--------|-4p3-0-|-estribillo-|
E|--------2-------------------|---------------------------------|--------|-------|------------|


BAJO:       FA#                         LA                  FA#                   
G|------------------------|-------------------------|------------------------|-----------|
D|------------------------|-------------------------|------------------------|-----------|
A|-4p3--0-----------------|-4p3--0------------------|-4p3--0-----------------|-4p3--0----|
E|-------2-2-0-2-2-0-2-2|--------5-5-3-5-5-3-5-5|-------2-2-0-2-2-0-2-2|--------0|

ESTRIBILLO 1:

MI
Cuando vendran los dias de sol 
        LA 
y no tener esa nube en el cielo 
          MI 
cuando vendran las noches de estrellas 
        LA 
y no tener mas mi casa ese techo. 
            MI 
Cuando vendra la cancion primitiva 
        RE5                  Fill           RIFF 3
y no tener mas sobre mi corazon, una cabeza. 

GUITARRA:
    RE5      fill                RIFF3
e|-------|----------|     |--------------------------|
B|-------|----------|     |--------------------------|
G|-7---|--5^~~----|     |----------------------#---|
D|-7---|----------|     |--------------------------|
A|-5---|----------|     |--7-7-5--7-5----7---------|
E|-------|----------|     |--5-5-3--5-3----5---------|


BAJO:     MI                       LA                             RE       RIff 3
G|-------------------------|---------------------------|--|-----|-----|---------------------|
D|-------------------------|---------------------------|X2|-MI--|-----|------------------#--|
A|-77-77-77-77-77-77-77-77-|------44-55-66----44-55-66-|--|-----|-5-|---------------------|
E|-------------------------|--5-5----------55----------|--|-----|-----|--55-3-5-5--3--5-----|


SOLO DE GUITARRA:

BAJO:       FA#                         LA                  FA#                 *  
G|------------------------|-------------------------|------------------------|-----------|
D|------------------------|-------------------------|------------------------|-----------|
A|-4p3--0-----------------|-4p3--0------------------|-4p3--0-----------------|-4p3--0----|
E|-------2-2-0-2-2-0-2-2|--------5-5-3-5-5-3-5-5|-------2-2-0-2-2-0-2-2|--------5|
            LA            SI                         SOL        RE           LA               
G|--------------------|------------------------|-------------|-------------|--------------------|
D|--------------------|------------------------|-------------|-------------|--------------------|
A|--------------------|------------------------|-------------|-5---5-5--5-0|--------------------|
E|-5-x-5-5-x-5-5-5-3-5|-7x-77-x-5-777-5-777-5-7|-3--33-3----3|-------------|55-3-55-3-55-3-5-5|

         LA                SI                         SOL        RE             LA
G|--------------------|------------------------|-------------|-------------|---------------|
D|--------------------|------------------------|-------------|-------------|------------#--|
A|--------------------|------------------------|-------------|-5---5-5--5-0|---------------|
E|-5-x-5-5-x-5-5-5-3-5|-7x-77-x-5-777-5-777-5-7|-3--33-3----3|-------------|55-3-55-3-5----|

GUITARRA solo     FA#                         LA                  FA#     
e|----------------------|-------------------|----------------------|------------------------|
B|----------------------|------------------5|----------------------|----5-7~-5---5----------|
G|---5~~~~----2-4b~-|-2-4--2-4--2-4b~-|-4b-4b-4b-4b--3p2---2-|/-5--------6---6-5-4-5br|
D|-7--------------------|---4----4----------|------------------4---|------------------------|
A|----------------------|-------------------|----------------------|------------------------|
E|----------------------|-------------------|----------------------|------------------------|
        *                  LA
e|---------------------|-/----------------------------|-----------12--12-12-12---------------|
B|---------------------|-/--------14b-14br----------|----11-13b-----13b13b13b-13b----------|
G|-4--2----4-3p2--5~~|---121212------------14-12-14-|-12--------------------------14p11-14-|
D|------4--------4-----|------------------------------|--------------------------------------|
A|---------------------|------------------------------|--------------------------------------|
E|---------------------|------------------------------|--------------------------------------|
                              a.h
e|-------|------------------|12b---------------|-------------------------------------------|
B|-------|-----15--17-17b-|-----13---13-13-----|-------13-------13--------13--------13--/--|
G|-14~-/-|--15--------------|-------14-------14--|-12/14-14-12/14-14--12/14-14--12/14-14--/--|
D|-------|------------------|--------------------|-------------------------------------------|
A|-------|------------------|--------------------|-------------------------------------------|
E|-------|------------------|--------------------|-------------------------------------------|
  con  Wah wah un poco
e|------------------------------------------------------------|17br------------|--------------|
B|----13-15-17-15p13----17-15p13-----17-15p13-----17-15p13----|------17-16-13----|--13-16b-15p13|
G|-14----------------14----------14------------14----------14-|---------------14-|14------------|
D|------------------------------------------------------------|------------------|--------------|
A|------------------------------------------------------------|------------------|--------------|
E|------------------------------------------------------------|------------------|--------------|

e|-----------|------------------------------------|-------------------------------|
B|----13--13-|------------------------------------|--------12-13b-dejar-sonar---|
G|-14--------|/14-16-17b-17b-17p16-14-16--14----|--11-14------------------------|
D|-----------|--------------------------------16//|-------------------------------|
A|-----------|------------------------------------|-------------------------------|
E|-----------|------------------------------------|-------------------------------|


ESTRIBILLO 2: igual

MI
Cuando vendran los dias de sol 
        LA 
y no tener esa nube en el cielo 
          MI 
cuando vendran las noches de estrellas 
        LA 
y no tener mas mi casa ese techo. 
            MI 
Cuando vendra la cancion primitiva 
        RE5                  Fill           RIFF 3
y no tener mas sobre mi corazon, una cabeza. 


SOLO DE SAXO FINAL:


BAJO:      
             SI5                       RE5                SI          RE
G|------------------------|-------------------------|--|-------|-----------|-----------|
D|-4p3--0-----------------|-4p3--0------------------|X3|--SI---|-4p3--0----|-4p3-0-----|
A|-------2-2-0-2-2-0-2-2|--------5-5-3-5-5-3-5-5|--|-------|--------5|--------2/-| fin
E|------------------------|-------------------------|--|-------|-----------|-----------|

GUITARRA:   SI5                       RE5                                 RE                 SI
e|--------------------------|-------------------------|--|-----|------10b10b10b10b10b|----------|
B|--------------------------|-------------------------|--|-----|------10b10b10b10b10b|----------|
G|-------4----------------|-------7---------------|X3|-SI5-|---------------------|--------4/|
D|-4p3-0-4-4-x-4-4-x--4-4-|-4p3-0-7-7-x-7-7-x--7-7|--|-----|-4p3-0---------------|-4p3-0--4/|
A|-------2-2-x-2-2-x--2-2-|-------5-5-x-5-5-x--5-5|--|-----|---------------------|--------2/|
E|--------------------------|-------------------------|--|-----|---------------------|----------|

FIN....

Fuente original ATAME [www.atame.org]
Colaborador original: guille [elguille665@hotmail.com]

Fuente: tusacordes.com