a b c d e f g h i j k l m n o p q r s t u v w x y z 0-9

Cuando Estes Aca

La Renga

Am
C
G
F
			
Cuando Estés Acá

Intro:
           Am          C Am      G      Am   Am             C Am
E|-------------|----------------------------|---------------------------3b|
B|---------5-5-|----------------------------|---------3b-3b-3b----2-3-5---|
G|---4-5-7-----|---4-5-4-5---4-5-4----------|-----4-5---------------------|
D|-7-----------|-7------------------7-5-5-7-|-5-7-------------------------|
A|-------------|----------------------------|-----------------------------|
E|-------------|----------------------------|-----------------------------|

  G         Am
e|-5-3-----|-------------|
B|-----3-5-|-4-5-4-5-4-2-|
G|---------|-------------|
D|---------|-------------|
A|---------|-------------|
E|---------|-------------|


             Am               C  Am         G                   Am
Cuando estés acá, tendrás tu espacio, y una frágil forma de existir.
             Am                 C     Am       G               Am
Con verte nacer, como hay quien puede ver, un mundo para destruir.
            Am                    C   Am      G                   Am
Ojos que no ven, corazones que no sienten, y vos que estas por venir.

G                           Am  G                            Am
 A cada instante habrá una flor, y en cada flor habrá un instante,
G                      Am  G                F
 en que la vida se desnude, ante esos ojos necios.

              Am              C   Am     G                 Am
Cuando estés acá, tendrás tu tiempo, el mismo que no tiene fin,
            Am               C   Am          G               Am
En un mundo así, donde esta tu lugar, quien puede el agua pudrir.
            Am                    C    Am     G                   Am
Ojos que no ven, corazones que no sienten, y vos que estas por venir.

G                           Am  [Riff1]   G                            Am [Riff2]
 A cada instante habrá una flor,            y en cada flor habrá un instante,
G                     Am  [Riff3] G               F     [Riff4]
 en que la vida se desnude,        ante esos ojos necios.

Solo:
  Am          Am                              C            Am
e|-0--------|--------------------------------|---------------------------------------|
B|-1--------|--------------------------------|---------------------------------1-----|
G|-0--|[x2]||--5b-5-------5------------2-2---|---------------------------------0--2--|
D|-2--------|--5b---5-5-7---7~--7p5h7--2-2-2-|--------------------------0-1-0-----2--|
A|-0--------|--------------------------------|-3h5p3-0h2p0--3~~--0~~----0-1-0--------|
E|----------|--------------------------------|--------------5~~--0~~-5b--------------|
  G         Am                                Am
e|----------|--------------------------------|--------3-----3-3-3-----3-----3---9b-7-|
B|-3b-------|-----------5-------5b-----------|------5---3s5-------3s5---3s5----------|
G|----------|5b---5-------5-7-5----5-7-5-----|-7b-5----------------------------------|
D|----------|---7---7~-------------------7~--|---------------------------------------|
A|----------|--------------------------------|---------------------------------------|
E|----------|--------------------------------|---------------------------------------|
  C                 Am             G
e|-------10-15-10~-|-10b-10b------|-------15-------15-------15-------15-------15-------|
B|-10-13-----------|---------10b~-|-13h15----13h15----13h15----13h15----13h15----15b---|
G|-----------------|--------------|--------------------------------------------------14|
D|-----------------|--------------|----------------------------------------------------|
A|-----------------|--------------|----------------------------------------------------|
E|-----------------|--------------|----------------------------------------------------|
                            Am
e|---------------------------17-17~~~|
B|--15b-15b-15b-15-15b-13------------|
G|------------------------14---------|
D|-----------------------------------|
A|-----------------------------------|
E|-----------------------------------|

              Am               C   Am     G                       Am
Cuando estés acá, tendrás tu espacio, tu tiempo y algo por que luchar
            Am             C   Am         G             Am
Al verte crecer, y hacerte fuerte, quien más le puede temer, a esos
            Am                    C  Am       G             Am
ojos que no ven, corazones que no sienten, si vos ya estas acá.

G                          Am [Riff1] G                             Am [Riff2]
 A cada instante habrá una flor,       y en cada flor habrá un instante.

Intro

Fin:
    E|-5---5-3-------------5-|
    B|---------5-3-------5---|
    G|-------------5-4-2-----|
    D|-----------------------|
    A|-----------------------|
    E|-----------------------|

    Riff1              Riff2                                            Riff3
    e|---------------3-|---3---3---1---1---3---3---1---1-----1----------|-0-3-0------------|
    B|-4p3h4p3h4p3h4---|-3---3---3---3---3---3---3---3---3~~---3-1-3~~--|-------3----------|
    G|-----------------|------------------------------------------------|---------4b-2p0h2-|
    D|-----------------|------------------------------------------------|------------------|
    A|-----------------|------------------------------------------------|------------------|
    E|-----------------|------------------------------------------------|------------------|

    Riff4
    e|---3---3---1---1---3---3---1---1-----1-------1~~--|
    B|-3---3---3---3---3---3---3---3---3~~---3-1-3------|
    G|--------------------------------------------------|
    D|--------------------------------------------------|
    A|--------------------------------------------------|
    E|--------------------------------------------------|

Fuente: tusacordes.com