a b c d e f g h i j k l m n o p q r s t u v w x y z 0-9

Cuando Estes Aca

La Renga

			
Bueno esta es mi primer transcripcion y aca les tengo este Solo que esta mucho mejor...esta casi perfecto.
Espero que les sirva !!



1--------------------------------------------|--------------------------------|
2--------------------------------------------|---------------------------6----|
3---5-7--------------------------------------|--7-5-----5-7b-7-5-----7-5-5b-5-|
4--------5-5-7--7-5-7-7----------------------|------7-7----------7-7----------|
5------------------------5-7--5-7-5----------|--------------------------------|
6------------------------------------7-5~~~~-|--------------------------------|


1-----------------------------------------------|-------------------------------------------------------0-------------------|
2-----------------------------------------------|-----8--8--8-8888---------------------16-17-17br-20-17-17b--16br-16-14-----|
3--9p7-8p7-9p7-8p7-----9p7-8p7-----9p7-8p7------|--7s99-99-99-999999-s-19-19-17--17s19----------------------------------15--|
4------------------8p7---------8p7---------8p7--|---------------------------------------------------------------------------|
5-----------------------------------------------|---------------------------------------------------------------------------|
6-----------------------------------------------|---------------------------------------------------------------------------|


1------15-------15-------15-------15----------------------------------------------------------17~~---|
2--s17----16h17----16h17----16h17----16h17---s14-14-9---14-16b-16-14-16b-16---14-16b-16-14-----------|
3------------------------------------------------------------------------------------------16--------|
4----------------------------------------------------------------------------------------------------|
5----------------------------------------------------------------------------------------------------|
6----------------------------------------------------------------------------------------------------|



~ = vibrato
b = estira
br= estira y baja
h = ligado ascendente
p = ligado descendente


Hasta La Proxima !!

Fuente original ATAME [www.atame.org]
Colaborador original: Rodrigo Cilio [rodri_melly@hotmail.com]

Fuente: tusacordes.com