a b c d e f g h i j k l m n o p q r s t u v w x y z 0-9

Cuando Estes Aca

La Renga

			
esta es la intro que yo saque,es el arreglo de la
armonica,espero q les sirva:

                  LAm                 DO           LAm
e|-------7-8--10-12-12--|------7-8--7------8-8--8|
B|--10--------------------|-10------------10-----------|
G|------------------------|----------------------------|
D|------------------------|----------------------------|
A|------------------------|----------------------------|
E|------------------------|----------------------------|


     SOL                     LAm
e|----------------8---7-------------|
B|--10--8-8--8--------10--10----|
G|----------------------------------|
D|----------------------------------|
A|----------------------------------|
E|----------------------------------|



e|----7--8-10--12--11-12-11-12-11-12--|
B|-10-----------------------------------|
G|--------------------------------------|
D|--------------------------------------|
A|--------------------------------------|
E|--------------------------------------|



e|---15--17--17---15---------------------------------|
B|-------------------15--15--------------------------|
G|---------------------------16-17-16-17-16-17--14-|
D|---------------------------------------------------|
A|---------------------------------------------------|
E|---------------------------------------------------|


FINAL:

e|-------8---------8--10---------8-10--8---7--------------|
B|--10-------10--------------10------------------10--8--|
G|----------------------------------------------------------|
D|----------------------------------------------------------|
A|----------------------------------------------------------|
E|----------------------------------------------------------|



e|---12--10--8--------------------------15-17-|
B|---------------------12--12---10----------------------|
G|----------------------------------12---12-------------|
D|------------------------------------------------------|
A|------------------------------------------------------|
E|------------------------------------------------------|


fin.

esta transcripcion se la dedico a mi papa :

  MANUEL RICARDO VELARDEZ


cualquier duda o sugerencia mi mail es:
ariel_velardez@yahoo.com
o si no tambien:
aparipi_13@hotmail.com

 DE ARIEL O MAS CONOCIDO COMO APARIPI

Fuente original ATAME [www.atame.org]
Colaborador original: ariel ricardo velardez [ariel_velardez]

Fuente: tusacordes.com