a b c d e f g h i j k l m n o p q r s t u v w x y z 0-9

Cuando Estes Aca

La Renga

			
Introducción:

       A/C             G
G|---------------|------------|
D|---------------|------------|
A|-0--0--3-0--0--|-------0--0-|
E|---------------|-3--3-------| x2

Primera Estrofa: IGUAL A LA INTRODUCCION PERO SE REPITE 
3 VECES

Estribillo:

        G             A
G|-------------|-------------|
D|-------------|-------------|
A|-------------|-0--0---0--0-|
E|-3--3---3--3-|-------------| x3

        G             F
G|-------------|-------------|
D|-------------|-------------|
A|-------------|-------------|
E|-3--3---3--3-|-1--1---1--1-|

Segunda Estrofa: IGUAL A LA PRIMERA ESTROFA
---------------------------------------------
Estribillo
---------------------------------------------
Despues viene esto:

          A
G|------------------|
D|------------------|
A|--0n---------0n---|
E|------------------|   n=nota larga
---------------------------------------------
Solo de guitarra sobre:

        G             A
G|-------------|-------------|
D|-------------|-------------|
A|-------------|-0--0---0--0-|
E|-3--3---3--3-|-------------|

        G             F
G|-------------|-------------|
D|-------------|-------------|
A|-------------|-------------|
E|-3--3---3--3-|-1--1---1--1-|

       A/C             G
G|---------------|------------|
D|---------------|------------|
A|-0--0--3-0--0--|-------0--0-|
E|---------------|-3--3-------|

       A/C             G
G|---------------|------------|
D|---------------|------------|
A|-0--0--3-0--0--|-------0n---|
E|---------------|-3--3-------|    n=nota larga
--------------------------------------------
Tercera Estrofa: IGUAL A LA PRIMERA ESTROFA
--------------------------------------------
Estribillo ESTA VEZ LO HACE ASI:

        G             A
G|-------------|-------------|
D|-------------|-------------|
A|-------------|-0--0---0--0-|
E|-3--3---3--3-|-------------|

        G             F
G|-------------|-------------|
D|-------------|-------------|
A|-------------|-------------|
E|-3--3---3--3-|-1--1---1--1-|
-------------------------------------------
Outro: IGUAL A LA INTRODUCCION PERO SE REPITE 3 VECES
-------------------------------------------
Recomiendo escuchar bien el bajo del tema para poder 
tocarlo. Si tenés alguna duda y/o pregunta, escribime a 
ejpolo@hotmail.com

Fuente original ATAME [www.atame.org]
Colaborador original: Emiliano Polo [ejpolo@hotmail.com]

Fuente: tusacordes.com