a b c d e f g h i j k l m n o p q r s t u v w x y z 0-9

Cortala Y Olvidala

La Renga

			
gaita el tema se llama cortala y olvidala, no córtala y olvídala o
cortarla y olvidarla.........tendes?? cortala y olvidala asi como suena

+-------+
| INTRO |
+-------+

E|----------------------------------|
B|----------------------------------|
G|-4-4-----4------------------------|
D|-4-4-----4---------4-4-----4------|
A|-2-2--0--2---0-----4-4-----4------|
E|----------------0--2-2--0--2---0--|x8 <--la 3ra vez se mete el bajo y la 4ta,
   B5   A  B5  A  E  F#5  E  F#5 E         el redoble de bata con el q arranca

+----------+
| ESTROFAS |
+----------+

F#5   G#5      A5                    E5
No lo puedo evitar tu herida aun me sangra                              * En los E, tocá este riff:
                    A5                     E5                             A|-2-2--4-5-4-|
Me sangra sin provocarla, sin jarabe ni desinfección                      E|-0-0--0-0-0-|x2
                  A5                              E5
El médico de guardia dijo, dijo que había que cortarla                  * Y en los A excepto el 1ro:
                A5                         E5                             G|-2-2----2-4-2---2--|
Cortarla y olvidarla, para usted debe ser fácil le dije,                  D|-2-2--4-------4----|x2
                      [Riff Intro]x4
Porque es mi herida...


[F#5 G5 G#5 A5 ...B5]

+------------+
| ESTRIBILLO |
+------------+

E5           A5                      B5       D5     E5
    Como un ciego hacia el fuego viajé, alas de mariposa                * Todos los E del estribillo
E5        A5                  B5           D5        E5                   se tocan en el traste 7,
    De todas las heridas que tuve, fuiste la más hermosa                  no en el 2 como en el resto
E5              A5                 B5      D5       E5                    de la canción...
    Herida que muerde, me mata la vida de muerte rabiosa
E5           A5                   B5        C5         B5       A5...
    Como un ciego al fuego quiero ir y ese fuego ya no es para mí

+--------------+
| SÓLO VIOLA |
+--------------+

E|--------------------------------------------------------------------|
B|----------------------------------0----5p3p05p3p05p3p0p5p3p0p5p3p0p-|
G|---2b3--2-0-2-------2b3--2-0----------------------------------------|
D|-----------------------------2--------------------------------------|
A|--------------------------------------------------------------------|
E|--------------------------------------------------------------------|
  A5              A5                     A5

E|--------------------------------------------------------------------|
B|-5p3p0p5p3p0p5p3p0--------------------------------------------------|
G|--------------------2~~-2-0-2-3-2-0-2--------9--12-9~------9-9-11-9-|
D|----------------------------------------9/11----------9/11----------|
A|--------------------------------------------------------------------|
E|--------------------------------------------------------------------|
                      E5                 A5

E|-----7------7------7------7-----------------------------------------|
B|--------------------------------15b16---15b16b15p12---15--15b16-----|
G|-9-9----9-9----9-9----9-9-------------------------------------------|
D|--------------------------------------------------------------------|
A|--------------------------------------------------------------------|
E|--------------------------------------------------------------------|
       E5                         A5

E|--------------------------------------------------------------------|
B|-15--12--15-15b---15--12--------15-------15-------------------------|
G|--------------------------14b15----14b15------14--12------12--14----|
D|------------------------------------------------------14------------|
A|--------------------------------------------------------------------|
E|--------------------------------------------------------------------|
                            E5

E|------------------------15b16--15b16--15b16---15p12---15b16--15b16--|
B|--------------------------------------------------------------------|
G|-15p14p12--15p14p12-------------------------------------------------|
D|--------------------------------------------------------------------|
A|--------------------------------------------------------------------|
E|--------------------------------------------------------------------|
                          A5

E|-15b16--------------------------------------------------------------|
B|----------15b16b15p12-----------------------------------------------|
G|-----------------------14b15b14p12------------12-14--12~~~----------|
D|------------------------------------14-12-14------------------------|
A|--------------------------------------------------------------------|
E|--------------------------------------------------------------------|
            E5

CON BASE DE INTRO x4:
·······················
E|------------------------------------------15b16--15b16--15b16b15p12-|
B|-15b16--15b16b15p12--15--15b16---15b16p12---------------------------|
G|--------------------------------------------------------------------|
D|--------------------------------------------------------------------|
A|--------------------------------------------------------------------|
E|--------------------------------------------------------------------|


E|-12----------------15b16--15b16--15b16b15--12-12-------------17b18--17b18--|
B|----15-12----12-12------------------------------------15/17----------------|
G|---------------------------------------------------------------------------|
D|---------------------------------------------------------------------------|
A|---------------------------------------------------------------------------|
E|---------------------------------------------------------------------------|
·······················

E|--17b18--17b18-------17b18--17b18--------17b18--17b18---------17b18-|
B|---------------15p17---------------15p17---------------15p17--------|
G|--------------------------------------------------------------------|
D|--------------------------------------------------------------------|
A|--------------------------------------------------------------------|
E|--------------------------------------------------------------------|
    F#5                G5                  G#5                   A5

E|-17b18---------17b18-17b18-17b18-17b18-17b18-17b18------------------|
B|--------15p17-------------------------------------------------------|
G|--------------------------------------------------------------------|
D|--------------------------------------------------------------------|
A|--------------------------------------------------------------------|
E|--------------------------------------------------------------------|
                  B5

+------------+
| ESTRIBILLO |
+------------+

+-------+
| FINAL |
+-------+

               [E5 A5]x2 [B5]  * Estos E en el traste 2

[E5 A5 B5]x4 [E]x3 [C5 D5 E5]  * Y estos, en el 7

 +-----------------------------+--------------------------------+
 | Símbolos usados en los tabs |                                |
 +-----------------------------+                                |
 |                                                              |
 | 9~ -----> Hacer q vibre la nota Vibrato.                   |
 |                                                              |
 | 10/12 --> Deslizar desde el traste 10 hasta el 12 Slide.   |
 |                                                              |
 | 3b4 ----> Estirar la cuerda en el traste 3 hasta q suene     |
 |           como sí se pisara el traste 4 Bending.           |
 |                                                              |
 | 3p0 ----> Ligar la nota q pisas en el traste 3 con la cuerda |
 |           al aire Pull Off.                                |
 |                                                              |
 | 17 ---> Esta nota es opcional pisarla. No suena pero no    |
 |           estaría demás tocarla Ghost Note.                |
 |                                                              |
 | [12] ---> Armónico natural en el traste 12 N. Harmonics.   |
 |                                                              |
 +--------------------------------------------------------------+-------------------+---------+   
 | Bue como siempre, lo q + cuesta sacar es el solo y tmb es    | Cifrado americano |         |
 | donde + errores encuentres...aunq cuando lo toco con el dis- +-------------------+         |
 | co va bien...asi q bue...el resto supongo q ira bien...no su-|                             |
 | pongo, toy seguro...bue loco suerte y ya saben para quienes  | C   D   E   F   G    A   B  |
 | va: a la banda de lanus y a los mismos de siempre... MaRTo   | Do  Re  Mi  Fa  Sol  La  Si |
 +--------------------------------------------------------------+-----------------------------+

Fuente original ATAME [www.atame.org]
Colaborador original: MaRTo [el_ciclope@hotmail.com]

Fuente: tusacordes.com