a b c d e f g h i j k l m n o p q r s t u v w x y z 0-9

Blues De Bolivia

La Renga

D
C
G
			
 ACORDES:> D C G 

Es la versión en vivo:
Esta es mi primer tab. Perdón si lo hice mal..

La intro les dejo los punteos base,
una ves que lo saquen lo modifican a su gusto.
Bueno sin nada mas que decir acá va el tema:
's':No se bien el nombre que se utiliza,
pero para mi es arrastrar el dedo a al traste indicado..
por ejemplo 4s5 arrastrar desde 4 hasta 5.

Intro:
Ahora si nos vamos..
e------------------------------------l
B-8--888888-7-5--------------------8-l
G---------------7--7-7-7-7-5--5-5-7?-l x4
D------------------------------------l
A------------------------------------l
E------------------------------------l
Cocaína cocaína..
e---------------------8--------------l
B-7--7-7-7-7-5--5-5-7----------------l
G------------------------------------l x1
D------------------------------------l
A------------------------------------l
E------------------------------------l

e------------------------------------l
B-8--888888-7-5--------------------8-l
G---------------7--7-7-7-7-5--5-5-7?-l x2
D------------------------------------l
A------------------------------------l
E------------------------------------l

e-------------------------------------l
B-8--888888-7-5-----------------------l
G---------------7--7-7-7-7-5--5-5-5-5-l x1
D-------------------------------------l
A-------------------------------------l
E-------------------------------------l
                 D              C           G 
Cuando vaya pa?bolivia por las calles voy a andar
G                 D       C                G 
Quizás entre en un cine y después entre en un bar.
G                 D         C        G 
Seré amable con la gente, les daré mi corazón
G                     D            C         G 
a cada fiesta que me inviten, les cantare mi canción.

e------------------------------------l-----------------------8-8-7-5--
B-8?-888888-7-5--------------------8-l-8?-888888-7-5----------------8-
G---------------7--7-7-7-7-5--5-5-7--l---------------7?-7-7-7---------
D------------------------------------l--------------------------------
A------------------------------------l--------------------------------
E------------------------------------l--------------------------------
[Hacerlo 2 veces]

                 D          C             G 
Y no se para que voy si no tengo ningún pariente
G                   D       C           G 
Pero siempre es conveniente conocer otros países
G                 D               C          G 
Sobre todo cuando dicen que esta en vías de desarrollo

G                         D      C           G 
Entonces yo les brindo mi apoyo entonando mi canción

Co cocaína, cocaína, ya me voy para Bolivia,
cocaína marihuana me espera una boliviana..
e------------------------------------l-----------------------8-8-7-5--
B-8?-888888-7-5--------------------8-l-8?-888888-7-5----------------8-
G---------------7--7-7-7-7-5--5-5-7--l---------------7?-7-7-7---------
D------------------------------------l--------------------------------
A------------------------------------l--------------------------------
E------------------------------------l--------------------------------
[Hacerlo 2 veces]

                  D                  C        G 
Y cuando este por ahí voy a ir a un centro cultural
G                  D            C      G 
A informarme de su status y su histórico pasar.
G               D       C            G 
Compartiremos poesías, historias y geografía
G                      D             C           G 
Ellos me hablaran de su patria, yo les hablare de la mía.
              G 
Cocaína, cocaína [cocaína cocaína]
                   D
Ya me voy para Bolivia [coaina cocaina]
             C                       G 
Cocaína marihuana me espera una boliviana ahiaahiaahii[grito]
             D  C            G 
Cocaína cocaína, cocaína marihuana

e------------------------------------l-----------------------8-8-7-5--
B-8?-888888-7-5--------------------8-l-8?-888888-7-5----------------8-
G---------------7--7-7-7-7-5--5-5-7--l---------------7?-7-7-7---------
D------------------------------------l--------------------------------
A------------------------------------l--------------------------------
E------------------------------------l--------------------------------
[Hacerlo 2 veces]
---------------------------------Solo---------------------------

-------------------------------Percusión--------------------------

Cantito:
Vamos la renga ponga huevo y vaya al frente,
que se le pide, toda la gente.
Vamos la renga ponga huevo y vaya al frente,
que se lo pide toda la gente.
Una bandera que diga el che Guevara un par de rocananroles
y un porro pa fumar..
[sigue pero ya lo deben saber]

e-4s5-4s5-4-5---------5-4-5-------------------------l
B-------------6-5-3-5-------5--5-5s8-6-6-5?-3---3-5-l
G---------------------------------------------5-----l x2
D---------------------------------------------------l
A---------------------------------------------------l
E---------------------------------------------------l

e---------5-5-------------5-5-4-5-7----------------------5-5---------
B-------6-----6---------5-----------5-6-5?-55-----------6----6------5
G-77777---------7-5-55--------------------7---------7-77------7-5-55-
D---------------------------------------------7-9-10-----------------
A--------------------------------------------------------------------
E--------------------------------------------------------------------
5-5-4-5-7---7s8-7-5-4-5---l
----------5---------------l
--------------------------l
--------------------------l
--------------------------l
--------------------------l

----Repite otra vez el cantito subido 1 tono o como más les guste----

-----------------------Percusión------------------------


Cuando vuelva de Bolivia, traeré pa? mis hermanos una bolsa,
una bolsa así grandota de regalo.

              G 
Cocaina, cocaina [cocaina cocaina]                            l
                 D                                           l
Ya me voy para Bolivia [coaina cocaina]                       l
             C                       G                     l x2
Cocaina marihuanaa me espera una boliviana ahiaahiaahii[grito]l
             D  C             G                           l
Cocaina cocaínaaa, cocaina marihuana                          l

e------------------------------------l
B-8--888888-7-5--------------------8-l
G---------------7--7-7-7-7-5--5-5-7?-l x4
D------------------------------------l
A------------------------------------l
E------------------------------------l
             D       C         G 
Cocaina, cocaina me corre la policia,
G           D           C           G 
Cocaina, marihuana, por turista voy en cana.
G          D           C            G 
Cocaina, cocaina se la quedan los de arriba
G          D              C               G 
Cocaina, mrihuana, prenden fuego y no queman nada.


------------Instrumental-------------

e------------------------------------l
B-8--888888-7-5--------------------8-l
G---------------7--7-7-7-7-5--5-5-7?-l x1
D------------------------------------l
A------------------------------------l
E------------------------------------l

 

Fuente: tusacordes.com