a b c d e f g h i j k l m n o p q r s t u v w x y z 0-9

Blues Cardiaco

La Renga

			
Intro
G|-------------------------------------------------------|
D|-------------------------------------------------------|
A|-------------------------------6-5----5-4-5-4-5-555555-|
E|-4-5--------4-5--------4-5-----------------------------|

Pre verso Antes que Chizzo empieza a cantar
G|----------------------------------------|
D|-------------------------------------2~-|
A|-----------------------------3-3-3-3----|
E|-55-55-55-55-035-55-55-55-55------------|

G|-------------------|-----------------| 
D|-------------------|-----------------|  | x2
A|-----------------3-|-----------------|  |
E|-0-5-3-5-3-5-3-5---|-5-3-5-3-5-3-0-0-| /

Verso ...Para ser un tipo educado...
G|-------------|-----------------|---------------|
D|-------------|-----------------|---------------|
A|-----------3-|-----------------|------------3~-|
E|-5-3-5-3-5---|-5-3-5-3--0-00-0-|-5-3-5-3-5-----|

...Sin embargo, no aprendi nada...
G|------------------------------------------|
D|-----------------5------------------------|
A|-5-4-5-4-5-555-7---7-5--------------------|
E|-----------------------5555555-0355555555-|

G|------------------------------------------------------|
D|-----------------5------------------------------------|
A|-5-4-5-4-5-555-7---7-5---------------------3-------2~-|
E|-----------------------5555555-0355555555-------------|

Sigue asi...

G|-------------------|-----------------| 
D|-------------------|-----------------|  | x2
A|-----------------3-|-----------------|  |
E|-0-5-3-5-3-5-3-5---|-5-3-5-3-5-3-0-0-| /

G|-------------|-----------------|---------------|
D|-------------|-----------------|---------------|
A|-----------3-|-----------------|------------3~-|
E|-5-3-5-3-5---|-5-3-5-3--0-00-0-|-5-3-5-3-5-----|

G|------------------------------------------|
D|-----------------5------------------------|
A|-5-4-5-4-5-555-7---7-5--------------------|
E|-----------------------5555555-0355555555-|

G|------------------------------------------------------|
D|-----------------5------------------------------------|
A|-5-4-5-4-5-555-7---7-5---------------------3-------2~-|
E|-----------------------5555555-0355555555-------------|

G|-------------------|-----------------| 
D|-------------------|-----------------|  | x2
A|-----------------3-|-----------------|  |
E|-0-5-3-5-3-5-3-5---|-5-3-5-3-5-3-0-0-| /

G|-------------|-----------------|---------------|
D|-------------|-----------------|---------------|
A|-----------3-|-----------------|------------3~-|
E|-5-3-5-3-5---|-5-3-5-3--0-00-0-|-5-3-5-3-5-----|

G|------------------------------------------|
D|-----------------5------------------------|
A|-5-4-5-4-5-555-7---7-5--------------------|
E|-----------------------5555555-0355555555-|

G|------------------------------------------------------|
D|-----------------5------------------------------------|
A|-5-4-5-4-5-555-7---7-5---------------------3-------2~-|
E|-----------------------5555555-0355555555-------------|

Break
E|-3-5-|

G|------------------------------------------|
D|-----------------5------------------------|
A|-5-4-5-4-5-555-7---7-5--------------------|
E|-----------------------5555555-0355555555-|

G|------------------------------------------------------|
D|-----------------5------------------------------------|
A|-5-4-5-4-5-555-7---7-5---------------------3-------2~-|
E|-----------------------5555555-0355555555-------------|

G|-------------------|-----------------| 
D|-------------------|-----------------|  | x2
A|-----------------3-|-----------------|  |
E|-0-5-3-5-3-5-3-5---|-5-3-5-3-5-3-0-0-| /

G|------------------------------------------|
D|-----------------5------------------------|
A|-5-4-5-4-5-555-7---7-5--------------------|
E|-----------------------5555555-0355555555-|

G|------------------------------------------------------|
D|-----------------5------------------------------------|
A|-5-4-5-4-5-555-7---7-5---------------------3-------2~-|
E|-----------------------5555555-0355555555-------------|

G|-------------------|-----------------| 
D|-------------------|-----------------|  | x2
A|-----------------3-|-----------------|  |
E|-0-5-3-5-3-5-3-5---|-5-3-5-3-5-3-0-0-| /

G|-------------------|-----------------| 
D|-------------------|-----------------|  | x2
A|-----------------3-|-----------------|  | La ultima vez queda E|-0~-|
E|-0-5-3-5-3-5-3-5---|-5-3-5-3-5-3-0-0-| /

Solo de bateria no hay bajo

...Figuritas, medallitas y diplomas...

G|------------------------------------------|
D|-----------------5------------------------|
A|-5-4-5-4-5-555-7---7-5--------------------|
E|-----------------------5555555-0355555555-|

G|------------------------------------------------------|
D|-----------------5------------------------------------|
A|-5-4-5-4-5-555-7---7-5---------------------3-------2~-|
E|-----------------------5555555-0355555555-------------|

Final
G|-------------------------|------------------------|
D|-------------------------|------------------------|
A|-------------------------|------------------------|
E|-5-3-5-3-5-2-3-5~--/17~--|--------------------3-5-|

La tablatura es un poco larga y tiene un par de arreglitos de
Insoportablemente Vivo pero esta perfecta creo.

Dudas o comentarios a piri_22@hotmail.com.

Fuente original ATAME [www.atame.org]
Colaborador original: Nicolas [piri_22@hotmail.com]

Fuente: tusacordes.com