a b c d e f g h i j k l m n o p q r s t u v w x y z 0-9

Bien Alto

La Renga

			
Intro

G-----0-2-3-2-0--------------
D----------------------------
A----------------------------
E-000------------------------x4

Verso Hasta cuanto...

G-----------------------------------------------------------------------------------
D---------------------------------------------------------------------------5-------
A--------------------------------------------------------------5-55-0-3-5-7---7-5-0-
E-3-333-3-2-0-000-0-2-3-3332h3-332h3-33-3-2-0-2-3-3332h333-333----------------------

Hasta donde seguirà...

G----------------------------------
D----------------------------------
A--3-33-333-----------3-0-3-5-3-5--
E-----------3-33-0-00--------------

...tambièn

G-----0-2-3-2-0--------------
D----------------------------
A----------------------------
E-000------------------------x2

Verso Hasta donde, si ya voy tocando el cielo...

G-----------------------------------------------------------------------------------
D---------------------------------------------------------------------------5-------
A--------------------------------------------------------------5-55-0-3-5-7---7-5-0-
E-3-333-3-2-0-000-0-2-3-3332h3-332h3-33-3-2-0-2-3-3332h333-333----------------------

Hasta cuanto, que nunca...

G---------------------------------------
D---------------------------------------
A--3-33-333-------------3-0-3-3-5-3-5-5-
E-----------3-33-2-0-00-----------------

...màs

G-----0-2-3-2-0--------------
D----------------------------
A----------------------------
E-000------------------------x2

Cada vez estoy màs...

G------------------------------------
D------------------------------------
A-3-3333-0-2-3-3333-0----------------
E---------------------3-3333-2-33333-

Y el avismo bajo mis pies...

G------------------------------------
D------------------------------------
A-3-3333-0-2-3-3333-0----------------
E---------------------3-3333---00000-

Pero a donde queda llegar...

G------------------------------------
D------------------------------------
A-3-3333-0-2-3-3333-0----------------
E---------------------3-3333-2-00000-

Desde arriba cada vez más alto...

G----------------------------
D----------------------------
A--3-3333--0-5-5555----------
E----------------------------

...està Intervalo / solo de armonica

G-----0-2-3-2-0--------------
D----------------------------
A----------------------------
E-000------------------------x6

NOTA: En esta parte fijarse los tiempos

G-------------------------------------
D-------------------------------------
A-------------------0-5-55555555------
E-3-0-2-3---0-0-2-3-------------------

G------------------------------------------------
D------------------------------------------------
A-3-33-0-3-33-0-------------3-333-5-555----------
E---------------3-333-0-000-------------00000000-

Verso Apunado de locura, va a dejarme...

G--------------------------------------------------------------------------
D--------------------------------------------------------------------------
A--------------------------------------------------------------------------
E-3-3333-0-0000-0-2-3-3-333-3-2-0-00000-3-333-3-2-0-000-0-2-3-3333-0-0000--

Tanto vertigo es la vida...

G------------------------------------
D------------------------------------
A-3-3333-0-2-3-3333-0----------------
E---------------------3-3333-2-00000-

Morir abajo, como tambièn arriba...

G----------------------------
D----------------------------
A--3-3333--0-5-5555----------
E----------------------------

G-----0-2-3-2-0--------------
D----------------------------
A----------------------------
E-000------------------------x4

Final

G----------------------------
D----------------------------
A----------------------------
E---0-0-0--------------------

Lo sencillo tambien es bello...ojala les sirva!

Fuente original ATAME [www.atame.org]
Colaborador original: Alejandro Wasil [alewasil@hotmail.com]

Fuente: tusacordes.com