a b c d e f g h i j k l m n o p q r s t u v w x y z 0-9

Balada Del Diablo Y La Muerte

La Renga

			
Mim    Sol              RE            la
e|-----0---------------------3p2------------------------|
B|-----0---------------------3--------2-2--2------------|
G|-----0---------------------2--------2-2--2--0h2p0-----|X4   
D|-----2---------0h2p0---0---0--------2-2--2------2p0---|         
A|---2----------------2---------------0-0--0------------|
E|-0-------3-3-----------3------------------------------|




VERSO1: 

    Mim    Sol              RE            la
e|-----0---------------------3p2------------------------|
B|-----0---------------------3--------2-2--2------------|
G|-----0---------------------2--------2-2--2--0h2p0-----|X4   
D|-----2---------0h2p0---0---0--------2-2--2------2p0---|         
A|---2----------------2---------------0-0--0------------|
E|-0-------3-3-----------3------------------------------|



               Mim             Sol
Estaba el diablo mal parado 
             Re            La
en la esquina de mi barrio
      Mim                Sol
Ahí donde dobla el viento
          Re            La
y se cruzan los atajos.

            Mim                 Sol
Al lado de el estaba la muerte
                Re           La
con una botella en la mano,
         Mim           Sol
me miraba de reojo 
          Re         La
y se reían por lo bajo.

         Mim                           Sol
Y yo que esperaba no se a quien
         Re                         La
al otro lado de la calle del otoño
       Mim            Sol
una noche de bufanda
                 Re           La
que me encontró desvelado




           Mim               Sol
entre dientes, oí a la muerte 
            Re       La     Si
que decía, que decía así:


ESTRIBILLO



           Lam                          Do
Cuantas veces se abra escapado
         Sol             Re
como laucha por tirante
          Lam                           Do
y esta noche que no cuesta nada,
       Sol        Re
ni siquiera fatigarme

      Lam                       Do
podemos llevarnos un cordero 
    Sol  Re               Lam
con solo cruzar la calle


VERSO 2: igual

MIm                 Sol
Yo me escondí tras la niebla
y mire al infinito
a ver si llegaba ese 
que nunca iba a venir.

Estaba el diablo mal parado
en la esquina de mi barrio
al lado de el estaba la muerte
con una botella en la mano.....


SOLO DE GUITARRA:
   
    MI              SOL            RE               LA
G|----------------|---------------|---------------|--------------|
D|----------------|---------------|---------------|--------------|
A|----------------|---------------|5-5-5-5--5-55-5|--------------|
E|-0-0-0-0-0-00-0-|-3-3-3-33-33-3-|---------------|5-55-6-5-3--0-|

  MI              SOL              RE                LA
G|----------------|--------------|----------------|--------------|
D|----------------|--------------|----------------|--------------|
A|----------------|--------------|-5-5-5-5--5-55-5|--------------|
E|-0-0-0-0-0-00-0-|-3-3-3-33-33-3|----------------|-5555555-5--|



GUITARRA:
E|------|------------------------|-------------------------------|------------------------------|
B|------|-11b--------11b--10p8h|-10----8-7-8----8/15/--------|------------------------------|
G|-9----|------------------------|-----------------------9-------|-9---9-------7---9--------|
D|------|------------------------|-------------------------8h7---|----------8h7-----------8-7---|
A|------|------------------------|-----------------------------9-|--------------9-------------9-|
E|------|------------------------|-------------------------------|------------------------------|

------------------------------|-----------10-------------------|-----------------10------------|
---------------------------8-8|--8/2/-10b-----10b-10b-10-8-|-10---8--7--8-----8--7--8--7-|
-------------------------9----|--------------------------------|-------------------------------|
--7--5-7-5-7-7b--7-5-7-5------|--------------------------------|-------------------------------|
------------------------------|--------------------------------|-------------------------------|
------------------------------|--------------------------------|-------------------------------|
                                                                           
--10p7-----10p7-----10p7-----10p7-----10p7-----10p7-----10p7-----10p7-----|
-------8-7------8-7------8-7------8-7------8-7------8-7------8-7------8-7-|
--------------------------------------------------------------------------|
--------------------------------------------------------------------------|
--------------------------------------------------------------------------|
--------------------------------------------------------------------------|
                                               
--10p7-----10p7-----10p7-----10p7------12~~/1/12|
-------8-7------8-7------8-7------8-7-------------|
--------------------------------------------------|
--------------------------------------------------|
--------------------------------------------------|
--------------------------------------------------|

*tocar esta parte bien rapido y sin parar con la pua                                                  
--------------------------------------------------|  |---------------------|
--10-10-10-10-12-12-12-12-13-13-13-13-12-12-12-12-|  |10-10-10-10-12--//---|
--------------------------------------------------|X2|---------------------|
--------------------------------------------------|  |---------------------|
--------------------------------------------------|  |---------------------|
--------------------------------------------------|  |---------------------|
                                                         
14-12--14--15p14--12-17~~//-|-----15--17--17b----17brp15|
------------------------------|/17--------------------------|
------------------------------|-----------------------------|
------------------------------|-----------------------------|
------------------------------|-----------------------------|
------------------------------|-----------------------------|
                                                                          Deslizar lento
------17-18b------17------|--15----------------------|--------------|--12-//-2-----------|
----------------------------|------17-19br---17--------|--15---17~~-|--12-//-2-----------|
----------------------------|--------------------16----|--------------|--12-//-2-----------|
----------------------------|--------------------------|--------------|--11-//-1-----------|
----------------------------|--------------------------|--------------|--------------------|
----------------------------|--------------------------|--------------|--------------------|
                                                     
//.. desliza por todo el mango 


VERSO 3: BAJO SOLO

Y temblando como una hoja 
me cruce para encararlos
y le dije, me parece que esta vez
me dejaron bien plantado

Les pedí fuego y del bolsillo
saque una rama pa´convidarlos
Y bajo un árbol del otoño
nos quedamos chamullando.



VERSO 4: mas distorcion

MI5
Me contaron de sus vidas,
SOL5
sus triunfos y sus fracasos
re5
de que el mundo estaba loco
LA5
y hasta el cielo fue comprado:




PRE_ESTRIBILLO2: mas distorcion

             Mi5               Sol5
y mas miedo que ellos dos
                   Re5               La5   Si5
me daba el propio ser humano




ESTRIBILLO 2:  mas distorcion

      La5                         Do5
y yo ya no esperaba a nadie
          Sol5                       Re5
y entre las risas del aquelarre
     La5              Do5
el diablo y la muerte 
           Sol5          Re5
se me fueron amigando.

     La5                  Do5
Ahí donde dobla el viento 
          Sol5            Re5
y se cruzan los atajos.
      La5                   Do5
Ahí donde brinda la vida
            Sol5              Re5
en la esquina de mi barrio.



SOLO DE ARMONICA:

GUITARRA: [MI5- SOL5- RE5- LA5]X4   y final con [MI]

Fuente: tusacordes.com