a b c d e f g h i j k l m n o p q r s t u v w x y z 0-9

Balada Del Diablo Y La Muerte

La Renga

			
la Renga 
      Balada del diablo y de la muerte TAB 


Esta es la intro, y también continúa en gran parte de 
la canción. No pongo toda la canción con sus acordes 
porque ya están en otras transcripciones.



e-----0-----------------------------3p2------------>
B-----0-----------------------------3----3------2-->
G---0------0----0----------0-----2---------2----0-->
D-----------------0h2p0-------0-------------------->
A------------------------2--------------------0---->
E-0------0----3------------------------------------>

>-------------------0--||  
>-------------------0--|| 
>-----------0-----0----|| Y SE REPITE NUEVAMENTE UNA   
>--0h2p0---------------|| Y OTRA VEZ.  
>---------2------------||   
>--------------0-------||

Fuente original ATAME [www.atame.org]
Colaborador original: alejandro [sn4k3_87@hotmail.com]

Fuente: tusacordes.com