a b c d e f g h i j k l m n o p q r s t u v w x y z 0-9

Balada Del Diablo Y La Muerte

La Renga

			
Este es mi primer solo asi largo y jodido, asi que posiblemente 
tenga partes mal...si descubris
que esta mal, mandame un mail y decime, ok?
Para facilitar el tiempo, lo separe en partes

e|---------------------------------------|
B|-----12b--12-10-9---10-9-10/deslizar-|
G|--9------------------------------------|
D|---------------------------------------|
A|---------------------------------------|
E|---------------------------------------|

                                           muy rapido
                                      /----------------
e|--6----------5----------4-------------------2---------|
B|----5-4-3h4----4-3-2h3----3-2-1h2---1h2-1h2---2-1h2p0-|
G|------------------------------------------------------|
D|------------------------------------------------------|
A|------------------------------------------------------|
E|------------------------------------------------------|

e|-----------------------8b---------------------10-----------|
B|--5-5-5/deslizar--9b----9b--9-7h8h9---9-8-9----9-8---9-8-|
G|-----------------------------------------------------------|
D|-----------------------------------------------------------|
A|-----------------------------------------------------------|
E|-----------------------------------------------------------|

e|--------------------------------8-9---5-7-|
B|--10h8h7--10h8h7-muchas veces-----------|
G|------------------------------------------|
D|------------------------------------------|
A|------------------------------------------|
E|------------------------------------------|

ahora, para lograr un efecto casi igual tenes que pasar la pua contra la cuerda arriba y abajo, bien rapido
e|------------------------------------------------------------------------------------------------------|
B|--999999999-1111111111-1212121212-1111111111-99999999-1111111111-1212121212-1111111111-9999999-111111-|
G|------------------------------------------------------------------------------------------------------|
D|------------------------------------------------------------------------------------------------------|
A|------------------------------------------------------------------------------------------------------|
E|------------------------------------------------------------------------------------------------------|

e|--9-8-9-11-9-11-11/13---13-11-13-13/15--15b17--15b17h15-15-13-12-13-15-13-12-|
B|-----------------------------------------------------------------------------|
G|-----------------------------------------------------------------------------|
D|-----------------------------------------------------------------------------|
A|-----------------------------------------------------------------------------|
E|-----------------------------------------------------------------------------|

    tambien suena bien con 13b       
          /-
e|-----12-14b---14/deslizar-|
B|--14----------14/deslizar-|
G|---------------0------------|
D|--------------14/deslizar-|
A|---------------0------------|
E|---------------0------------|

Bueno, eso es todo...estoy convencido que la segunda parte tiene algo mal, pero no puedo descubrir
que es...asi que si tenes una mejor version, pasamela por favor
*SI ALGUIEN TIENE EL SOLO DE NO ME ARREPIENTO DE ESTE AMOR VERSION ATTAQUE 77, ME LO PUEDE
PASAR? GRACIAS!*

Fuente original ATAME [www.atame.org]
Colaborador original: Alejandro Ledesma [ajledesma@infovia.com.ar]

Fuente: tusacordes.com