a b c d e f g h i j k l m n o p q r s t u v w x y z 0-9

Balada Del Diablo Y La Muerte

La Renga

			
LA RENGA:
Balada del diablo y la muerte.

el bajo entra cuando suena el bombo de la bateria.

UNA ACLARACION, ESAS PARTES DONDE HAY:
D-----------------------------
A-7-7891010= ESTE NUMERO ES DIEZ. LOS QUE ESTAN 
ENTRE PARENTECIS     NO ES UNO Y CERO 

^=ligado
*=la veces necesariasmuchas veces

INTRO:
G------------------------------
D---------7---------577575-----
A-7-78910----9875-57------7----
E------------------------------
  MI   SOL      RE   LA
---------------------/
--------7-------57-/
-7-78910-9875-57-----/
---------------------/
 MI   SOL   RE    LA

VERSO:
G-------------------------- X7
D--------7-------577-575---
A-7-78910-9875-57-------7--
E--------------------------
  MI   SOL   RE   LA

ESTA PARTE ES CUANDO DICE: AAAAAHAHAHAH
HACE ESTO:
G----------/
D-----9*---/
A----------/
E-5^7------/
     SI

AHORA SIGUE EL VERSOPERO AHORA TIENE UN CAMBIO QUE
ES ASI ES MUY PEQUEÑO:
G----------------------------- X2
D-----------7--------577-575--
A-7-78910-10-9875-57--------7-
E-----------------------------
  MI   SOL      RE    LA
----------------------------------
-----------7-------------57-75-7*-
-7-78910-10-9875-5-5-5-57---------
----------------------------------
 MI   SOL      RE         LA 

AHORA VIENE ESTO:
G----------------------------- X3
D-----------7-------577-575---
A-7-78910-10-9875-57-------7--
E-----------------------------
  MI   SOL      RE   LA
------------------------/
-----------7-------57-/
-7-78910-10-9875-57-----/
------------------------/
 MI   SOL      RE   LA

AHORA VIENE EL PUNTEO CON LA BATERIA LENTA
G----------------------------- X2
D-----------7-------577-575---
A-7-78910-10-9875-57--------7-
E-----------------------------
 MI    SOL      RE   LA     
----------------------------- X2
-----------7-------77-77-
-7-78910-10-987555-----------
-----------------------------
 MI   SOL      RE   LA   LA

AHORA VIENE EL PUNTEO CON LA BATERIA RAPIDA
G--------------/ X2 /-----/
D--------------/    /-----/
A-7*-10*-5*----/    /-----/
E-----------5*-/    /-5-/
  MI SOL RE LA        LA

AHORA VIENE ESTA PARTE:ESTA PARTE ES CUANDO CANTA
DESPACITO
Y HACE ESTO:
G-------------------------  X6
D--------7-------577-575--
A-7-78910-9875-57-------7-
E-------------------------
  MI   SOL   RE   LA 
 
AHORA VIENE LA PARTE MAS FUERTEEN ESTA PARTE CANTA
MAS FUERTE
Y HACE ESTO:
G--------------------------- X3
D----------7-------577-575--
A-7-7891010-9875-57-------7-
E---------------------------
  MI    SOL    RE   LA

AHORA VIENE, ESTA PARTE ES CUANDO GRITA
WUOHOOO WUOO WUOOO WUOHHOOAAA
HACE ESTO:
G---------/
D----9*---/
A---------/
E-5^7-----/
     SI

AHORA VIENE ESTO:
G-------------------------- X3
D---------7-------577-575--
A-77891010-9875-57-------7-
E--------------------------
  MI  SOL     RE   LA
------------------------
---------7-------577-7*-
-77891010-9875-57-------
------------------------
 MI   SOL    RE   LA

AHORA VIENE ESTO:
G-------------- X4
D--------------
A-7*-10*-5*----
E-----------5*-  Y TERMINA ASI A-7-//
  MI SOL RE LA                   MI

(10=DIEZ/              --- NO ES UNO Y CERO.)

BUENO ESO FUE TODO. ESPERO QUE LES SIRVA.

AGUANTE LA RENGA, Y DOS MINUTOS!!!!!...


CHAUU.

LAS NOTAS DE ABAJO SON PARA QUE PUDAN TOCAR CON VIOLA.

Fuente original ATAME [www.atame.org]
Colaborador original: enzo [enzogandolfoharo@latinmail.com]

Fuente: tusacordes.com