a b c d e f g h i j k l m n o p q r s t u v w x y z 0-9

Balada Del Diablo Y La Muerte

La Renga

			
Tal vez, les guste escuchar una historia:
La historia de la esquina

2:25 3:18
e|----------------------|-------------|--------------|»
B|-10--17~~~-10~--17--|-15--13--15~-|-13--12--13~--|»
G|----------------------|-------------|--------------|»
D|----------------------|-------------|--------------|»
A|----------------------|-------------|--------------|»
E|----------------------|-------------|--------------|»

«|---------------------------------------------------------|
«|-----12------------14-------12----------12-------12------|
«|-14------12~---10------14~------12--10------14-------12--|
«|---------------------------------------------------------|
«|---------------------------------------------------------|
«|---------------------------------------------------------|

2:40 3:34
e|-------------------------------------------|
B|-------------------------------------------|
G|--10--12--14--10--12--14~--12~--10~--12~--|
D|-------------------------------------------|
A|-------------------------------------------|
E|-------------------------------------------|

e|------------------------------|
B|-12--13--13--15--17--15--17--|
G|------------------------------|
D|------------------------------|
A|------------------------------|
E|------------------------------|

2:47 3:42
e|--------------------------------------------------------»
B|--15-13-12-15-13-12-15-13-12-15-13-12-15-13-12-15-13-12-»
G|--------------------------------------------------------»
D|--------------------------------------------------------»
A|--------------------------------------------------------»
E|--------------------------------------------------------»

«------------------------------------------------|
«-15-13-12-15-13-12-15-13-12-15-13-12-15--17-17--|
«------------------------------------------------|
«------------------------------------------------|
«------------------------------------------------|
«------------------------------------------------|






2:54 3:51
e|----------------------------------------------------|
B|----------------------------------------------------|
G|--12~~--14~--15~--14~--12~--14~--15~--14~--12~--14~-|
D|----------------------------------------------------|
A|----------------------------------------------------|
E|----------------------------------------------------|

3:00 3:57
e|--------------------------|
B|--15--17--18--17--15--18-|
G|--------------------------|
D|--------------------------|
A|--------------------------|
E|--------------------------|

3:02 3:59
e|----------------------------------------------------»
B|--17--19--20---22----22--22--22--22--20--19--20--19-»
G|----------------------------------------------------»
D|----------------------------------------------------»
A|----------------------------------------------------»
E|----------------------------------------------------»


«----------------------------||
«-17--19--17-------------15--||
«--------------16-15---------||
«----------------------------||
«----------------------------||
«----------------------------||


~:vibrato
:estirar abajo

Para todos los pibes de Cátulo

Fuente original ATAME [www.atame.org]
Colaborador original: Cátulo Castillo [lospibesdecatulo@hotmail.com]

Fuente: tusacordes.com