a b c d e f g h i j k l m n o p q r s t u v w x y z 0-9

Balada Del Diablo Y La Muerte

La Renga

			
Esta es una corrección del solo. Lo estuve escuchando al q estaba 
y sinceramente no me paresia. Suena muy bien hasta en criolla:

E ?----------------------------------12s?*-
B ?------10s-12-12-10p9h10-----------------
G ?3s-9--------------------12p11h12--------
D ?------------------------------------------
a ?------------------------------------------
e -------------------------------------------
     3:no es una nota fija, lo ase rápido deslizando al 9
    *después del 12 ase un desliz masomenos al 2 o 3, no es fijo.




e --------------10---------------------10-----
b ---------10s12?-12-12-10p9h10---------------
g 2s9-12-12--------------------12-11-12?-12-11-12-11
d ---------------------------------------------
a --------------------------------------------
e --------------------------------------------


e ?10p7*---10s12-12-12-12----------------------
b ----8p7*---------------10-10-10-10-10-10-12-12-12
g ---------------------------------------------
d ---------------------------------------------
a ---------------------------------------------
e ---------------------------------------------
    *:es un ostinato, lo repite 13 veces.


e ------------------------------------12-12-14-15-14-12
b ------------------------------------12-------
g 12-12-12-13-13-13-13-13-13*-10-12-12-------
d ---------------------------------------------
a ---------------------------------------------
e ---------------------------------------------
   *:lo ase bien rapidito.






E ?15s17-17?15-17-17b-17b-17-15-17-19-17-15-17-17b-
B ---------17----------------------------------
G ---------------------------------------------
D ---------------------------------------------
A ---------------------------------------------
E  --------------------------------------------


E ?15?15-17vibratos-12*--
B ---16---------------12*--
G --------------------12*--
D --------------------12*--
A --------------------12*--
E --------------------12*--
   *: estos son armónicos.

Fuente original ATAME [www.atame.org]
Colaborador original: fransisco gutierrez [fg_88_@hotmail.com]

Fuente: tusacordes.com