a b c d e f g h i j k l m n o p q r s t u v w x y z 0-9

Balada Del Diablo Y De La Muerte

La Renga

			
Principal
G|--------x----------------------------x-------------------|
D|--------x-------------7-5------------x-------------------|
A|--------x-----------------7-6-5------x-------------------|
E|-0------x--0-2-3---------------------x--0-3-5-5--3-5-3-0-|

Puente
G|--------x----------------------------x-----------------------------------|
D|--------x-------------7-5------------x-----------------------------------|
A|--------x-----------------7-6-5------x-----------------------------------|
E|-0------x--0-2-3---------------------x--0-3-5ds------------------------|

Fin
G|--------x----------------------------x---------------------------------------
D|--------x-------------7-5------------x---------------------------------------
A|--------x-----------------7-6-5------x---------------------------------------
E|-0------x--0-2-3---------------------x----0--3--5--5----3--5--3--0--0ds....

Fuente original ATAME [www.atame.org]
Colaborador original: Cris77ian [yocdp@yahoo.com.ar]

Fuente: tusacordes.com