a b c d e f g h i j k l m n o p q r s t u v w x y z 0-9

Balada Del Diablo Y De La Muerte

La Renga

			
Solo versión estudio:

e|---------------------------------------------------------------------------------------------
B|-----12------12-p10p8h10---8-7-8--/168------------------------------------------------------
G|-9----------------------------------------9------9----------7---9----------------------------
D|--------------------------------------------975----9-975------975-7--5-7-5-7b8-7-5-7-5-
A|---------------------------------------------------------------------------------------------
E|---------------------------------------------------------------------------------------------

e|-----------------------10-------------------------10-----------
B|-8b10˝-10˝-10˝r8---12-----12---12--10p8h10--8-7-8----8-7-7-8-7-
G|---------------------------------------------------------------
D|---------------------------------------------------------------
A|---------------------------------------------------------------
E|---------------------------------------------------------------

e|-10p8p7h8-10p8p7h8-10p8p7h8-10p8p7h8-10p8p7h8-10p8p7h8-10p8p7h8-10p8p7h8-10p8p7h8-10p8p7h8
B|------------------------------------------------------------------------------------------
G|------------------------------------------------------------------------------------------
D|------------------------------------------------------------------------------------------
A|------------------------------------------------------------------------------------------
E|------------------------------------------------------------------------------------------

e|-10p8p7h8-10p8p7h8-10/12---125-
B|--------------------------------
G|--------------------------------
D|--------------------------------
A|--------------------------------
E|--------------------------------

e|---------------------------------------12-14-15-14-12-17~--10----15-17-19--19-
B|--10-12-13-12-10-12-13-12-10-12---5/-12-------------------------17-------------
G|-------------------------------------------------------------------------------
D|-------------------------------------------------------------------------------
A|-------------------------------------------------------------------------------
E|-------------------------------------------------------------------------------
  tr.............................

e|-17-15-1719-17-15---15b17r15-12-----12------12---------|
B|-----------------17-------------15----------12--11p10--|
G|--------------------------------------------12---------|
D|-------------------------------------------------------|
A|-------------------------------------------------------|
E|-------------------------------------------------------|

Fuente original ATAME [www.atame.org]
Colaborador original: Cris77ian [yocdp@yahoo.com.ar]

Fuente: tusacordes.com