a b c d e f g h i j k l m n o p q r s t u v w x y z 0-9

Balada Del Diablo Y De La Muerte

La Renga

			
Colaboracion de Gabriel Vaquer
------------------------------|||
INTRO:

E|--------0------------------------------3-2----|---------------------|------
B|--------0-----------3p5h3-----3--------3----3-|-----2-------------*-|--2---
G|--------0--------0---------4--------2--2------|-----2--2-4b-2--0----|--2---
D|-----2---------------------------0------------|-----2---------------|--2---
A|----------------------------------------------|--0----------------*-|--0---
E|--0--------0p3--------------------------------|---------------------|------

Repite intro:

               Mim             Sol
Estaba el diablo mal parado
             Re            La7
en la esquina de mi barrio
      Mim                Sol
Ahí donde dobla el viento
          Re            La7
y se cruzan los atajos.

            Mim                 Sol
Al lado de el estaba la muerte
                Re           La7
con una botella en la mano,
         Mim           Sol
me miraba de reojo
          Re         La7
y se reían por lo bajo.

         Mim                           Sol
Y yo que esperaba no se a quien
         Re                         La7
al otro lado de la calle del otoño
       Mim            Sol
una noche de bufanda
                 Re           La7
que me encontró desvelado
           Mim               Sol
entre dientes, oí a la muerte
            Re       La7     Si
que decía, que decía así:
           La                          Do
Cuantas veces se abra escapado
         Sol             Re
como laucha por tirante
          La                           Do
y esta noche que no cuesta nada,
       Sol        Re
ni siquiera fatigarme

      La                       Do
podemos llevarnos un cordero
    Sol  Re               La
con solo cruzar la calle

-----------------------------------------|
Repite intro:

Yo me escondí tras la niebla
y mire al infinito
a ver si llegaba ese
que nunca iba a venir.

Estaba el diablo mal parado
en la esquina de mi barrio
al lado de el estaba la muerte
con una botella en la mano.....


Solo:

Solo versión estudio:

e|--------------------------------/16-------------------------------------------------------
B|-----12~-----12b-8p10---8----8-----------5------5~--3------3~-/5---------------------------
G|-/9-----------------------10---------------2/-0-------2/-0-------2p0h2-0p2h0-2^3-2-0-2-----
D|-------------------------------------------------------------------------------------------
A|-------------------------------------------------------------------------------------------
E|-------------------------------------------------------------------------------------------

e|---------------10--------------------10------------------------
B|/8-8-8-8/--12b---12b-8p10-10-8----------------8----------------
G|-------------------------------10-10----10-10---10-10----------
D|---------------------------------------------------------------
A|---------------------------------------------------------------
E|---------------------------------------------------------------

e|10--------10--------10--------10--------10--------10-------10-10^12/--5-5^7/--------------
B|---8p7h8-----8p7h8-----8p7h8-----8p7h8-----8p7h8-----8p7h8--------------------------------
G|------------------------------------------------------------------------------------------
D|------------------------------------------------------------------------------------------
A|------------------------------------------------------------------------------------------
E|------------------------------------------------------------------------------------------

e|----------------------------------/15-14-12-14-15-14-12-/17b/-/12-15-17-19b-19b--17p15h17-19b-17-15-15-15br-12----------12bb
B|--10-12-13-12-10-12-13-12-10-12/------------------------------------------------------------------------------15-12-15------
G|----------------------------------------------------------------------------------------------------------------------------
D|----------------------------------------------------------------------------------------------------------------------------
A|----------------------------------------------------------------------------------------------------------------------------
E|----------------------------------------------------------------------------------------------------------------------------
  tr.............................

e|12~-------------------|
B|12~-11-10/------------|
G|12~-------------------|
D|----------------------|
A|----------------------|
E|----------------------|

Bajo:en guitarra

e|---------------------------------------------------|
B|---------------------------------------------------|
G|---------------------------------------------------|
D|-----------2p0-------------------------------------|
A|---------------2p0-5~------------------------------|
E|0-0-0-2-3--------------0-3-5-6-3-5-6-5-3-0---------|

Y temblando como una hoja
me cruce para encararlos
y le dije, me parece que esta vez
me dejaron bien plantado

Les pedí fuego y del bolsillo
saque una rama pa´convidarlos
Y bajo un árbol del otoño
nos quedamos chamullando.

      Mim               Sol
Me contaron de sus vidas,
      Rem               La7
sus triunfos y sus fracasos
      Mim               Sol
de que el mundo estaba loco
      Rem               La7
y hasta el cielo fue comprado:
       Mim                 Sol
y mas miedo que ellos dos
            Re               La7 -  Si
me daba el propio ser humano

      La                     Do
y yo ya no esperaba a nadie
          Sol                   Re
y entre las risas del aquelarre
     La              Do
el diablo y la muerte
           Sol          Re
se me fueron amigando.

     La                  Do
Ahí donde dobla el viento
          Sol            Re
y se cruzan los atajos.
      La                   Do
Ahí donde brinda la vida
            Sol              Re
en la esquina de mi barrio.

Termina: (Mim-Sol-Re-La7)
p  = pull off
h  = hammer on
/ = slide
b  = bend
r  = release
~  = vibrato
tr = trémolo mover la púa rápido y contínuo

----------------------------------------------|||

Colaboracion de Gabriel Vaquer
Cualquier correccion o duda: gaboocho@hotmail.com

Fuente original ATAME [www.atame.org]
Colaborador original: Gabriel Vaquer ------------------------------||| INTRO: E|--------0------------------------------3-2----|---------------------|------ B|--------0-----------3p5h3-----3--------3----3-|-----2-------------*-|--2--- G|--------0--------0---------4--------2--2------|-----2--2-4b-2--0----|--2--- D|-----2---------------------------0------------|-----2---------------|--2--- A|----------------------------------------------|--0----------------*-|--0--- E|--0--------0p3--------------------------------|---------------------|------ Repite intro: Mim Sol Estaba el diablo mal parado Re La7 en la esquina de mi barrio Mim Sol Ahí donde dobla el viento Re La7 y se cruzan los atajos. Mim Sol Al lado de el estaba la muerte Re La7 con una botella en la mano, Mim Sol me miraba de reojo Re La7 y se reían por lo bajo. Mim Sol Y yo que esperaba no se a quien Re La7 al otro lado de la calle del otoño Mim Sol una noche de bufanda Re La7 que me encontró desvelado Mim Sol entre dientes, oí a la muerte Re La7 Si que decía, que decía así: La Do Cuantas veces se abra escapado Sol Re como laucha por tirante La Do y esta noche que no cuesta nada, Sol Re ni siquiera fatigarme La Do podemos llevarnos un cordero Sol Re La con solo cruzar la calle -----------------------------------------| Repite intro: Yo me escondí tras la niebla y mire al infinito a ver si llegaba ese que nunca iba a venir. Estaba el diablo mal parado en la esquina de mi barrio al lado de el estaba la muerte con una botella en la mano..... Solo: Solo [versión estudio]

Fuente: tusacordes.com