a b c d e f g h i j k l m n o p q r s t u v w x y z 0-9

Arte Infernal

La Renga

Em
F#m
A
B
E
			
 /           riff             
Intro: E ---------------------------------------------------
       B ---------------------------------------------------
       G ---------------------------------------------------
       D ---------------------2--2--2--2--------------------
       A -2--------2----------2--2--2--2----2-------2-------
       E -0--3-4---0--3-4--0--0--0--0--0----0--3-4--0--3-4--

 Em           F#m
Ese adios te rompio en pedazos,
  A             Em
Tus ganas de seguir.
Em              F#m
El que sabe que ya no hay caso,
A                Em
Esta dispuesto a sufrir.

Las cuestiones de los fracasos,
Siempre fueron asi.
No queres dormir en otros brazos,
si te dan a elegir.

     D5                  A5
      Los tallos de esa rosa
     D5                 A5          ESTRIBILLO
      Siempre van a lastimar,
     D5               A5
      Dios las hizo tan hermosas,
   B5            D5
      Con un arte..... infernal.

riff x4

A un buen recurso apuestan los hombres
antes de decidir
Esa botella no tiene nombre
y ahora me toca a mi.

pero todo no termina tan pronto
aun que lo creas asi
es el final y siempre empieza todo
corre riesgo al vivir.

ESTRIBILLO

riff x 2

solo piano: B E X 4

ESTRIBILLO

riff x 3  piano mi x 4 golpes

---------------------------------
---------------------------------
------------9--------------------     base del solo
---9--------9-----------------9--
---9--------7--5/77-55-44-20--9--
---7--------------------------7-- 

Fuente original ATAME [www.atame.org]
Colaborador original: capretti, armando [tanofachamartel@hotmail]

Fuente: tusacordes.com