a b c d e f g h i j k l m n o p q r s t u v w x y z 0-9

Almohada De Piedra

La Renga

			
Riff 1
|-----------------------|
|-----------------------|
|-2--4-----2--4---------|
|-2--4-----2--4---------|
|-0--2-----0--2---------|
|------3~-------33333333|

Riff 2
|------|
|------|
|------|
|------|
|--2---|
|---3~-|

INTRO:
Riff 1    x4

1)
A5                     Riff 2
 Córranse que no puedo ver
A5                       Riff 2
 el sueño como me espera
A5                            Riff 2
 detrás de un muro de contención
A5                        Riff 2
 con la sonrisa de alma muerta.

Riff 1    x2

1) Como una fiera sangrando estoy
   en una selva de mentes viejas
   habrá también que saber soñar
   sobre una almohada de piedra.

Riff 3     x8
|------------------|
|------------------|
|------------------|
|------------------|
|---------2-2-3444-|
|-2-2-5-5----------|

2)
B5                     D5
  Ahora que lejos quiero llegar
E5                  B5
  nunca nada pudo estar tan cerca
B5                   D5
  a cielo abierto quiso mostrar
     E5             B5
  la noche su pensamiento
B5                       D5
  y en los reflejos que mas allá
     E5                 B5
  quisieran ver que despierto
B5                  D5
  y en el dolor por existir
        E5               F#5
  se habrá de romper el tiempo

Riff 1    x4

1) Muestra el mundo su condición
   y yo siempre saltando el cerco
   córranse que no puedo ver
   el sueño como lo espero

Riff 3    x8

2) Ahora que lejos quiero llegar
   nunca nada pudo estar tan cerca
   a cielo abierto quiso mostrar
   la noche su pensamiento
   y en los reflejos que mas allá
   quisieran ver que despierto
   y en el dolor por existir
   se habrá de romper el tiempo

Riff 3    x8

Riff 4
|--------------------------------|
|--------------------------------|
|--------------------------------|
|-4----------------4-------------|
|-2--0-2-3-2-3p2p0-2--0-2-3-2-3~-|
|--------------------------------|

|----------------------------------|
|----------------------------------|
|----------------------------------|
|-4------------------4-------------|
|-2--0-2-3p2p0-3p2p0-2--0-2-3-2-3~-|
|----------------------------------|

Riff 1    x4

2) Córranse que no puedo ver
   el sueño como me espera
   detrás de un muro de contención
   con la sonrisa de alma muerta.
   Como una fiera sangrando estoy
   es una selva de mentes viejas
   habrá también que saber soñar
   sobre una almohada de piedra.

Riff 5    x4
|------------------|
|------------------|
|------------------|
|------------------|
|---------22223444-|
|-22225555---------|

Riff 1    X2   A5



asi son los acordes q usa Chizzo...
 A5  B5  D5  E5  F#5
|---|---|---|---|----|
|---|---|---|---|----|
|-2-|---|---|---|----|
|-2-|-4-|-7-|-9-|-11-|
|-0-|-2-|-5-|-7-|-9--|
|---|---|---|---|----|

Fuente: tusacordes.com