a b c d e f g h i j k l m n o p q r s t u v w x y z 0-9

Al Que He Sangrando

La Renga

			
Segundo solo con wha-wha.

^ Estirar.
~ Vibrar.
/ Barrido.

E-12^^----------------------15^^^15~~*-----------12^-12-----------
B-15^^-15^-15-12-15^^-15-12----------*-----12-15-15^---15-12------
G------------------------------------*-/14-------------------14^--
D------------------------------------*----------------------------
A------------------------------------*----------------------------
E------------------------------------*----------------------------

E-----------------*---------------------------------------------*
B-----------------*-----12-----12-----12~-----------------15----*
G-14-12-14-12-----*-----12-----12-----12~-12-14^^-12--14^^---14~*
D-------------14~~*--14-----14-----14---------------------------*
A-----------------*---------------------------------------------*
E-----------------*---------------------------------------------*

E-----------17^^15-17^^^15-17^-19~-*-------------12^--12--------
B-15~~~-17/------------------------*-----12--15--15^-----15-12--
G----------------------------------*-/14------------------------
D----------------------------------*----------------------------
A----------------------------------*----------------------------
E----------------------------------*----------------------------

E--------------------*------------------------------------------
B--------------------*-----12-----12-----12~--------------------
G-14^-14-12-14-12----*-----12-----12-----12~-12-14^^-12-14~~----
D-----------------14~*--14-----14-----14------------------------
A--------------------*------------------------------------------
E--------------------*------------------------------------------

Final: E G A G X 4

Trascripción: El guitarrista de la Barakus.

Fuente original ATAME [www.atame.org]
Colaborador original: Martin [vaccalocca@yahoo.com.ar]

Fuente: tusacordes.com