a b c d e f g h i j k l m n o p q r s t u v w x y z 0-9

A Tu Lado

La Renga

			
  ***intro****:
 G--------------------------------------
 D--------------------------------------
 A---------------------3-3-3-3-3--------     x3
 E-0-0-0-0-0-0-0-0-0-0-----------5-3-0--


 G---------------------------------------------
 D---------------------------------------------
 A---------------------3-3-3-3-3-----3-3-3-3-3-3
 E-0-0-0-0-0-0-0-0-0-0-----------5-3------------


 G---------------------------------------------
 D---------------------------------------------
 A--------------------2--4-5-5-5-5-5--3-3-3-3-3
 E-3-3-3-3-3-3-3-3-3---------------------------


                   estribillo:

 G---------------------------------------------
 D---------------------------------------------
 A-----------------------5-5-5-5-5--3-3-3-3-3--  X2
 E-3-3-3-3-3-3-3-3-3---------------------------

 G----------------------------------------------------------
 D----------------------------------------------------------
 A-----------------------5-5-5-5-5--3-3-3-3-3-22222---------
 E-3-3-3-3-3-3-3-3-3---------------------------------00000000

Fuente: tusacordes.com