a b c d e f g h i j k l m n o p q r s t u v w x y z 0-9

A Tu Lado

La Renga

			
Vibrato>>>                                           ~
   Estiradas>>                                          b
   Estirar y bajar>>>                                   ba
   Slide>>>                                             s
   Sonidos armónicos>>>                                 <>
   Ligados ascendentes>                                 h
   Ligados descendentes>                                p
   Se mantiene la estirada>                             /
   Baja la estirada                                     //
   Tremolo                                              *  
   Toca la nota siguente con la estirada mantenida      b/

E  --12-12-12-12-12-12-12-12-12-12-12-12-----12-12-12-12-12-12-12-12-12-12-12-12-----------
B  --11-11-11-11-11-11-11-11-11-11-11-11-----11-11-11-11-11-11-11-11-11-11-11-11-----------
G  ----------------------------------------------------------------------------------------
D  ----------------------------------------------------------------------------------------
A  ----------------------------------------------------------------------------------------
E  ----------------------------------------------------------------------------------------

E  --15-15-15-15-15-15-15-15-15-15-15-15-----15-15-15-15-15-15-15-15-15-15-15-15-----------
B  --14-14-14-14-14-14-14-14-14-14-14-14-----14-14-14-14-14-14-14-14-14-14-14-14-----------
G  ----------------------------------------------------------------------------------------
D  ----------------------------------------------------------------------------------------
A  ----------------------------------------------------------------------------------------
E  ----------------------------------------------------------------------------------------
     Fijense la cantidad de veces                 *
E  --9****12****14****---------------------------------------------------------------------
B  -----------------------------------------17---------------------------------------------
G  ----------------------------------16-16b/-----16b-16bap14-16----------------------------
D  -------------------------------------------------------------16-------------------------
A  ----------------------------------------------------------------------------------------
E  ----------------------------------------------------------------------------------------
     FIJENSE LA VELOCIDAD DE ESTOS YEITES
E  -----------------------------------------------------------17b-17bap14-16-16bap14-------
B  ------14-------------14-------------14---------17b-17bap14------------------------17b---
G  --16b----16bap14-16b----16bap14-16b----16bap14------------------------------------------
D  ----------------------------------------------------------------------------------------
A  ----------------------------------------------------------------------------------------
E  ----------------------------------------------------------------------------------------

E  ----------------------------------------------------------------------------------------
B  ----------17b-17b-----------------------------------------------------------------------
G  --16b-16b-------------------------------------------------------------------------------
D  ----------------------------------------------------------------------------------------
A  ----------------------------------------------------------------------------------------
E  ----------------------------------------------------------------------------------------


   *Estira varias veces, fijense la cantidad.

    Espero que les sea facil tocarlo, vayan escuchandolo mientras lo saquen. Esta bien 
    traducido. Saludos.

Fuente original ATAME [www.atame.org]
Colaborador original: Federico [el_revbelde@hotmail.com]

Fuente: tusacordes.com