a b c d e f g h i j k l m n o p q r s t u v w x y z 0-9

A La Carga Mi Rock And Roll

La Renga

			
Intro.       
G|----------------------------------------------|-------------------------------------|
D|----------------#-----------------------------|-------------------------------------|
A|----------------------------------------------|--------------------3-3-3-3-3-3--3---| x4
E|----------------------------------------------|---3--3-3-3-3-3--0-------------------|

Verso 1.
G|-------------------------------------|
D|-------------------------------------|X12
A|---------------------3-3-3-3-3-3-3-3-|
E|--- 3--3-3-3-3-3--0------------------|

Estribillo 1.
G|---------------|------------|------------|----------------|-----------------------|
D|---------------|------------|------------|----------------|------------#----------|
A|---------------|33333333333-|------------|555555555555555-|-333333333-------------|
E|-5555555555555-|------------|-3333333333-|----------------|-----------------------|

Puente.
G|-------------------------------------|
D|-------------------------------------|X4
A|---------------------3-3-3-3-3-3-3-3-|
E|----3--3-3-3-3-3--0------------------|

Verso 2. como verso 1
Estribillo 2. como estribillo 1
Puente.

Solo de saxo.
G|----------------|----------------|----------------|-------------------------------------|
D|----------------|----------------|----------------|-------------------------------------|
A|555555555555555-|-33333333333333-|-5555555555555--|-0h3-3-0h3-3-0h3-3-0h3-3-0h3-3--0----|
E|----------------|----------------|----------------|-------------------------------------|

Puente.

Verso 3. como verso 1
Estribillo 3. como estribillo 1 

Fin.
G|-----------------------------------||----|----------------------------------------|
D|-----------------------------------||----|----------------------------------------|
A|---------------------3-3-3-3-3--3--||----|----------------------------------------|
E|-0-3--3-3-3-3-3--0-----------------||----|-3333333333333333333333333-----3------|

Fuente original ATAME [www.atame.org]
Colaborador original: Mariano Manieri [marianoelrusso@hotmail.com]

Fuente: tusacordes.com