a b c d e f g h i j k l m n o p q r s t u v w x y z 0-9

A La Carga Mi Rock And Roll

La Renga

			
INTRO :
GUITARRA:                                         ____________X4 __________________
   MI  SOL  MI        MI SOL MI    DO            | SOL           MI    DO          |
e|---------------|--|---------------------------|-----------------------------------||
B|---------------|--|---------------------------|-----------------------------------||
G|-------------#-|X2|-------------5-5-5-5-5--5~-|--------------------5-5-5-5-5--5~--||
D|-----5--2----|--|----5--2---5-5-5-5-5--5~-|---5--5-5-5-5-5--2--5-5-5-5-5--5~--||
A|-----5--2----|--|----5--2---3-3-3-3-3-----|---5--5-5-5-5-5--2--3-3-3-3-3------||
E|--0--3--0----|--|--0-3--0-----------------|-0-3--3-3-3-3-3--0-----------------||
                                                   ____________X4 __________________
BAJO:                                             | SOL           MI    DO           |        
G|----------------------------------------------|-------------------------------------|
D|----------------#-----------------------------|-------------------------------------|
A|----------------------------------------------|--------------------3-3-3-3-3-3--3---|
E|----------------------------------------------|---3--3-3-3-3-3--0-------------------|


VERSO 1:
GUITARRA
         SOL           MI    DO         
e||-----------------------------------||
B||-----------------------------------||
G||--------------------5-5-5-5-5--5~--||X12
D||---5--5-5-5-5-5--2--5-5-5-5-5--5~--||
A||---5--5-5-5-5-5--2--3-3-3-3-3------||
E||-0-3--3-3-3-3-3--0-----------------||
PM...................................

BAJO:  SOl         mi     DO
G|-------------------------------------|
D|-------------------------------------|X12
A|---------------------3-3-3-3-3-3-3-3-|
E|--- 3--3-3-3-3-3--0------------------|

  SOL5          Do5           SOL5              MI Do5    
 A la carga mi rocanrol, desborda cualquier mar 
 SOL5             Do5                 SOL5      MI Do5 
que contenga el gran vaso de tu cola de paja.
  SOL5             Do5                 SOL5      MI Do5 
Y si mi boca de dragon enciende la mecha 
 SOL5             Do5                 SOL5      MI Do5 
y no te gusta que diga una sola verdad 
 SOL5             Do5                 SOL5      MI Do5 
vas a usar tu prensa para aplastarme, 
 SOL5             Do5                 SOL5      MI Do5 
y a la cancion de la vida vas a desterrar. 


ESTRIBILLO 1:

BAJO:  LA             Do          SOl            RE            Do
G|---------------|------------|------------|----------------|-----------------------|
D|---------------|------------|------------|----------------|------------#----------|
A|---------------|33333333333-|------------|555555555555555-|-333333333-------------|
E|-5555555555555-|------------|-3333333333-|----------------|-----------------------|

guitarra:  [la5-do5-SOL5-re5-do5-SILENCIO]

La5
Vas a estar perdiendo el tiempo, 
Do5
porque atras nuestro viene un viento 
Sol5
que derriba todo lo que toca, 
Re5
porque mi canto ya tiene otras bocas 
Do5          SILENCIO
y ya nadie, NADIE lo puede callar. 


PUENTE:
GUITARRA
         SOL           MI    DO         
e||-----------------------------------||
B||-----------------------------------||
G||--------------------5-5-5-5-5--5~--||X4
D||---5--5-5-5-5-5--2--5-5-5-5-5--5~--||
A||---5--5-5-5-5-5--2--3-3-3-3-3------||
E||-0-3--3-3-3-3-3--0-----------------||

BAJO:  SOl         mi     DO
G|-------------------------------------|
D|-------------------------------------|X4
A|---------------------3-3-3-3-3-3-3-3-|
E|----3--3-3-3-3-3--0------------------|


VERSO 2:

A la carga mi rocanrol, desborda cualquier mar 
que contenga el gran vaso de tu cola de paja. 
Y si mi lengua de fuego no tiene ni un pelo 
y no te gusta que te cuente la realidad 
vas a apuntar tu cañon a nuestras mentes 
y a la cancion de la vida aniquilar. 


ESTRIBILLO 2:

Vas a estar perdiendo el tiempo, 
porque atras nuestro viene un viento 
que derriba todo lo que toca, 
porque mi canto ya tiene otras bocas 
y ya nadie lo puede callar. 


PUENTE:
GUITARRA
         SOL           MI    DO         
e||-----------------------------------||
B||-----------------------------------||
G||--------------------5-5-5-5-5--5~--||X2
D||---5--5-5-5-5-5--2--5-5-5-5-5--5~--||
A||---5--5-5-5-5-5--2--3-3-3-3-3------||
E||-0-3--3-3-3-3-3--0-----------------||



SOLO DE SAXO:

GUITARRA: [RE5-DO5]X2

BAJO:   RE             Do               RE              DO
G|----------------|----------------|----------------|-------------------------------------|
D|----------------|----------------|----------------|-------------------------------------|
A|555555555555555-|-33333333333333-|-5555555555555--|-0h3-3-0h3-3-0h3-3-0h3-3-0h3-3--0----|
E|----------------|----------------|----------------|-------------------------------------|


PUENTE :
GUITARRA
         SOL           MI    DO         
e||-----------------------------------||
B||-----------------------------------||
G||--------------------5-5-5-5-5--5~--||X8
D||---5--5-5-5-5-5--2--5-5-5-5-5--5~--||
A||---5--5-5-5-5-5--2--3-3-3-3-3------||
E||-0-3--3-3-3-3-3--0-----------------||

y despues....

con palm mute
         SOL           MI    DO         
e||------------------------------------||
B||------------------------------------||
G||---------------------5-5------------||X4
D||---5-5-5-5-5-5-5--2--5-5--<5>---<5>-||
A||---5-5-5-5-5-5-5--2--3-3-3---3------||
E||---3-3-3-3-3-3-3--0-----------------||
PM....................................


VERSO 3: con palm mute

 SOL5          Do5           SOL5              MI Do5    
 A la carga mi rocanrol, desborda cualquier mar 
 SOL5             Do5                 SOL5      MI Do5 
que contenga el gran vaso de tu cola de paja.



ESTRIBILLO 3: igual

y Vas a estar perdiendo el tiempo, 
porque atras nuestro viene un viento 
que derriba todo lo que toca, 
porque mi canto ya tiene otras bocas 
y ya nadie , nadie lo puede callar. 


FINAL.
GUITARRA
         SOL       MI    DO                    SOL
e||-----------------------------------||   |----------------------------------------|
B||-----------------------------------||   |----------------------------------------|
G||--------------------5-5-5-5-5--5~--||X8 |------------------------------------#---|
D||---5--5-5-5-5-5--2--5-5-5-5-5--5~--||   |-5555555555555555555555555-----5------|
A||---5--5-5-5-5-5--2--3-3-3-3-3------||   |-5555555555555555555555555-----5------|
E||-0-3--3-3-3-3-3--0-----------------||   |-3333333333333333333333333-----3------|
         SOL        MI   DO                    SOL
G|-----------------------------------||----|----------------------------------------|
D|-----------------------------------||----|----------------------------------------|
A|---------------------3-3-3-3-3--3--||----|----------------------------------------|
E|-0-3--3-3-3-3-3--0-----------------||----|-3333333333333333333333333-----3------|

 nadie lo puede callar.
 nadie lo puede callar.
 nadie lo puede ca....llar.


FIN...

Fuente original ATAME [www.atame.org]
Colaborador original: Guille [elguille665@hotmail.com]

Fuente: tusacordes.com