a b c d e f g h i j k l m n o p q r s t u v w x y z 0-9

2 2=3

La Renga

			
G-------------------------------------
D-----------------------------------7-
A-5-55-4-44------7-5---4---7-8-9-10---
E-----------3-33----------------------


G------------------------------------------------
D---------------2-4-5-4-2------------------------ x4
A-5-55------2-5-----------4-5?-7?-5-7------------
E------2-22-----------------------------5-55-5555-


G------------------------------------------------
D---------------2-4-5-4-2------------------------
A-5-55------2-5-----------4-5?55-7?-5-7----------
E------2-22----------------------------5-55-5555-

G----------------------------
D----------------------------
A---------5-55-------9-5-4-2-
E---3-33--------2-22---------

G--------------------------------
D--------------------------------
A------55-44-2-----------------5-
E-3-33---------3333333355555555--


G----------------------------
D----------------------------
A---------5-55-------9-5-4-2-  x2
E---3-33--------2-22---------


G------------------------------
D------------------------------
A-------------5-4-2--------5-5-
E-----3?33----------3-3-5-5----


G----------------------------------------
D----------------------------------------
A--------------------55-44-2---------5-5-
E------3---------------------3-3-5-5-----


G-----------
D-----------
A-----5-6-5-
E-3-5-------

Fuente: tusacordes.com