a b c d e f g h i j k l m n o p q r s t u v w x y z 0-9

Antonia Y Wendolee - Mi Forma De Sentir

La Academia

			
A7/B    A7/C#   A7+5
E - X    E - X   E - 1
B - 3    B - 5   B - 2
G - X    G - X   G - 3
D - X    D - X   D - 2 
A - 2    A - 4   A - 0
E - X    E - X   E - X
     
INTRO

   D             A7  Bm  A  G         A7        D
E -2-----2---3-2-0---------------3--------------2----3--2--0--2--|
B -3---3---3-----2---3---2--0------0--2----3-2--3-------------3--|
G -2-2-----2-----0---4---2--0--0---------0---0-----2----2-----2--|
D -0---------0-------4---2--0-------------------0-------------0--|
A ---------------0---2---0------------0--------------------------|
E --------------------------3------------------------------------|

 D            A7          Bm            Bm  A  G
Cada vez que veo salir el sol como hoy
            E                A7          A7/B  A7/C#  D
nada más puedo pensar que en tí, mi amor,
                A7         Bm       Bm  A  G
la distancia no es razón para dejar
              E                        A7
la esperanza de algún día volverte a besar.


      D       A7                 Bm             Bm  A  
Sólo tú, sólo tú que conoces mi forma de sentir,
   G          A7             D
mi forma de reir y hasta mi forma de llorar,
     A7          D
sólo tú sabes a donde voy,
     A7            D
sólo tú, sabes muy bién quién soy.


PUENTE

   D             A7  Bm  A  G         A7        D
E -2-----2---3-2-0---------------3--------------2----3--2--0--2--|
B -3---3---3-----2---3---2--0------0--2----3-2--3-------------3--|
G -2-2-----2-----0---4---2--0--0---------0---0-----2----2-----2--|
D -0---------0-------4---2--0-------------------0-------------0--|
A ---------------0---2---0------------0--------------------------|
E --------------------------3------------------------------------|



 D               A7              Bm            Bm  A  G
Cuando estoy yo sólo en casa me pongo a pensar
             E              A7                  A7/B  A7/C#  D
que conoces alguién que de amor te puede hablar,
 D           A7           Bm             Bm  A  G
pero de una cosa estoy seguro ¡oh mujer!
                  E                  A7
que lo que hay entre los dos nadie puede deshacer.


      D       A7                 Bm             Bm  A  
Sólo tú, sólo tú que conoces mi forma de sentir,
   G          A7             D
mi forma de reir y hasta mi forma de llorar,
     A7          D
sólo tú sabes a donde voy,
     A7            D
sólo tú, sabes muy bién quién soy.


PUENTE

   D             A7  Bm  A  G         A7        D
E -2-----2---3-2-0---------------3--------------2----3--2--0--2--|
B -3---3---3-----2---3---2--0------0--2----3-2--3-------------3--|
G -2-2-----2-----0---4---2--0--0---------0---0-----2----2-----2--|
D -0---------0-------4---2--0-------------------0-------------0--|
A ---------------0---2---0------------0--------------------------|
E --------------------------3------------------------------------|


 D               A7            Bm                  Bm  A  G
Cuando al fin el día llegue en que te vuelva a ver
           E                A7             A7/B  A7/C#  D
no te dejaré partir pues podría enloquecer,
 D            A7           Bm              Bm  A  G
nada en este mundo tendría su razón de ser
                 E          A7
si tu amor no hubiera yo podido conocer.


      D       A7                 Bm             Bm  A  
Sólo tú, sólo tú que conoces mi forma de sentir,
   G          A7             D
mi forma de reir y hasta mi forma de llorar,
     A7          D
sólo tú sabes a donde voy,
     A7            D
sólo tú, sabes muy bién quién soy,
     A7                 D
sólo tú, wo wo wo wo, wo mmmmmmmmmmmmmmmmm,
 A7           D                    A7  A7+5 D 
mi-i-i-i-i-i forma de sentir, sólo tú - u - u.

 __________________________________________________________________
[ En la parte del coro hace las siguientes figuras:                ]
[								   ]
[      A7                            D       			   ]
[ sólo tú . . . . . . . . .  sabes a donde voy,			   ] 
[       E ----------------                    E -----------0-s-2-  ]
[       B -2-s-0-s-2-s-3--                    B -3-s-2-s-3-------  ]
[       G ----------------                    G -----------------  ]
[       D ----------------                    D -0---------------  ]
[       A -0--------------                    A -----------------  ]
[       E ----------------                    E -----------------  ]
[								   ]
[      A7                              D       			   ]
[ sólo tú . . . . . . . . .  sabes muy bién quién soy,		   ]
[       E ----------------					   ]
[       B -2-s-0-s-2-s-3--                             		   ]
[       G ----------------                    			   ]
[       D ----------------                    			   ]
[       A -0--------------                    			   ]
[       E ---------------- 					   ]
[__________________________________________________________________]

Fuente original ATAME [www.atame.org]
Colaborador original: Jorge Vargas Johnston [jorvarjohn_61@hotmail.com]

Fuente: tusacordes.com