a b c d e f g h i j k l m n o p q r s t u v w x y z 0-9

Niña

La 5a. Estacion

			
Los acordes entran justo donde están colocados.Generalmente
entran solos, pero hay algunas veces que si entran con la letra.

Si tienes una duda, o quieren transportar a otro tono la
cancion, ESCRIBANME.

Suerte, saludos a Tamaulipas Mexico


Intro

  Em7           A7sus4          C                D
|------0--------|-----0--------|------0------------|----0----3----|
|----------3----|---------3----|---------3---------|-------3------|
|---0---------0-|--0---------0-|---0-------0-------|--2------2----|
|---------------|--------------|---------------0/2-|0-------------|
|---------------|0-------------|3------------------|--------------|
|0--------------|--------------|-------------------|--------------|


Em              Am7                  C
  Hay una niña sola en su habitación

                      D
  Jugando con el aire  y su imaginación

Em                   Am7                     C
  no comparte tesoros   ni tampoco secretos

                        D
  su universo es grande,  más que el mundo entero.



        C
  Ella ríe sin saber porque

        Em
  ella habla sin saber porque

        D
  ella mira a su alrededor

     C
  y no ve más que dolor


   G                    Em
  niña que va a ser de tí

                      D
  sin sueños que cumplir

               C
  con tu vida no querrás seguir




Em                       Am7
  Cien noches de lagrimas   y de fría oscuridad

C                      D
  El calor mas cercano   era el de la soledad

Em                  Am7
  tiene tanto miedo    a que puedan entrar

C                      D
  en su fragil burbuja   de irrealidad


Ella rie sin saber ?


Solo:

G               Em            D           C
|------------------|----------------|------------|--------------------|
|------------------|----------------|------3---5-|--------------------|
|----5--4----------|----5--4--------|------------|-------5-5/4--------|
|5---------7----5--|5---------7--5--|7-----------|5--4-5-------7-5/---|
|------------------|----------------|------------|--------------------|
|------------------|----------------|------------|--------------------|


La segunda parte del solo es el terceras
 G               Em            D
|------------------|----------------|------------------------|----10?-7--10?7--
|------------------|----------------|-----------8-8---8/108-|10---------------
|----9--7----------|----9--7--------|-7---7--9---------------|-----------------
|9---------10---9--|9---------10--9-|------------------------|-----------------
|------------------|----------------|------------------------|-----------------
|------------------|----------------|------------------------|-----------------


7-----------------------------|
---10---8-8-8~----------------|
------------------------------|
------------------------------|
------------------------------|
------------------------------|

Em7     000020

Am7  01020X

    A7sus4 : 03020X

--------------OTRAS TRANSCRIPCIONES----------------------------

rEIK - yO QUISIERA

fEY  - bARCO A vENUS

Luis M. - Amorcito Corazon - Dormir con tigo

Julieta venegas - Oleada

Fuente original ATAME [www.atame.org]
Colaborador original: JonaThan Nava [jonathan15_ng@hotmail.com]

Fuente: tusacordes.com