a b c d e f g h i j k l m n o p q r s t u v w x y z 0-9

Niña

La 5a. Estacion

			
Acordes

Dsus2     Dsus4    Cadd9    Cadd9/B
e-0-|     |-3-|    |-3-|    |-0-|
b-3-|     |-3-|    |-3-|    |-1-|
G-2-|     |-2-|    |-0-|    |-0-|
D-0-|     |-0-|    |-2-|    |-0-|
A---|     |---|    |-3-|    |-2-|
E---|     |---|    |---|    |---|

Intro:
e-----0---0-----|-----0---0-------|-----0------------|-----0---3----||
b-------0-0-----|-------1-1-------|-------1-1--------|-------3-3----||
G---------0-----|---------2-------|---------0--------|---2----------||
D---2-----2-----|---2-----2-------|---2-----2--------|-0------------||
A---------------|-0-----------0-2-|-3-----------3/7--|--------------||
E-0-------------|-----------------|------------------|--------------||


NOTA: El punteo en el verso es casi igual q el de la intro


VERSO1

Harmónico		    Harmónico
e-12-|                    e------|
b------|                    b-12-|
G------|                    G-12-|

Em             Am
  Hay una niña sola en su habitacion

                                Arreglo
                                e------7-8-7-|
                                b-8-10-------|
                                G------------|
C                    Dsus2       Dsus4
 Jugando con el aire y su imaginacion
[se repite]
no comparte tesoros ni tampoco secretos
su universo es grande, más que el mundo entero.


Pre-coro
     C
Ella ríe sin saber porque
     Em
ella habla sin saber porque
     D
ella mira a su alrededor
  Cadd9
y no ve más que dolor


Coro x2:
G                     Em
niña que va a ser de tí
                   D
sin sueños que cumplir
            C  Cadd9/B  C
con tu vida no querrás seguir


VERSO2:

se repiten los acordes y arreglo, sin harmónicos
Cien noches de lagrimas y de fría oscuridad
El calor mas cercano era el de la soledad

                  Arreglo
                  e-7h8p7-----|
                  b-----------|
                  G-------7-9-|
tiene tanto miedo a que puedan entrar
en su fragil burbuja de irrealidad


Pre-coro

se repiten los acordes
Ella ríe sin saber porque
ella habla sin saber porque
ella mira a su alrededor
y no ve más que dolor


Coro x2:

se repiten acordes, pero con distor
niña que va a ser de tí
sin sueños que cumplir
con tu vida no querrás seguir

Solo:

[] = vibrato lento
f = Full
r = released

e-----------------------------------------------------|
b-----------------------------------------------------|
G--------5-4-------5-4---------7--7-7-9-------5-5p4---|
D-----5------7-5-5-----7-5-5/7----------5-4-5-------5-|
A-10-------------------------------------------------|
E-----------------------------------------------------|

e-----------------------------------------------------|
b------/5-------------/5-----------------8-8-8-8f10-8-|
G-/[4]----7-5-4-/[4]----7-5-4--5/7-7-7h9--------------|
D-----------------------------------------------------|
A-----------------------------------------------------|
E-----------------------------------------------------|

e-------10-------10--------------------------|
b-10f12----10f12----10f12---10f12-10f12r10p8-|
G--------------------------------------------|
D--------------------------------------------|
A--------------------------------------------|
E--------------------------------------------|

Pre-Coro

se repiten los acordes, con distor bajo volumen
Ella ríe sin saber porque
ella habla sin saber porque
ella mira a su alrededor
y no ve más que dolor

Coro x4:

se repiten acordes, pero con distor
niña que va a ser de tí
sin sueños que cumplir
con tu vida no querrás seguir

Outro:
Silencio


Bueno, eso es todo, espero q les guste lo q saqué y q les sea muy útil.
Chido Chido, adios.

Fuente original ATAME [www.atame.org]
Colaborador original: Mai [maho236@hotmail.com]

Fuente: tusacordes.com