a b c d e f g h i j k l m n o p q r s t u v w x y z 0-9

Donde Iran

La 5a. Estacion

			
Este solo lo saque ya que yo esperaba encontrarlo
aqui y como no estaba lo saque para todos ustedes
ESTA MUY CHIDO!!

------------------------------------------------------
-----------------------------------------------------
--------8deja sonar-10h12--10h8h10----------------------------------------
---8h10--------------------------------------------------
-----------------------------------------------------
-----------------------------------------------------


------------------------------------------------------
----9h8-----11h10----9h8------11-----------------------------------
--------8---------8-------8-------8-----------------------
------------------------------------------------------
------------------------------------------------------
------------------------------------------------------


-------11----13------15------15-----16--15--13--15--------------------
----11----11-----11------11------11----------------------------
-----------------------------------------------------
------------------------------------------------------
-----------------------------------------------------
------------------------------------------------------


----13h15-13--11--13--11--10-11--10--------------------------------------
-------------------------------------11--------------
----------------------------------------------------
----------------------------------------------------
---------------------------------------------------
-----------------------------------------------------

y eso es todo el resto de la cancion 
ya se lo saben esta muy facil

Un saludo a toda la raza del Anglo Mexicano en Tampico,Tamps. MEXICO
en especial a todo 3E

Fuente original ATAME [www.atame.org]
Colaborador original: carlos antonio gómez paz [chukyboy_182@hotmail.com]

Fuente: tusacordes.com