a b c d e f g h i j k l m n o p q r s t u v w x y z 0-9

Donde Iran?

La 5a. Estacion

			
durante los versos una lira toca los acordes y otra lleva estos arreglitos
en el fondo. se repiten en todos los versos.

 ||-6-------------||
 ||---6----9p8----||
 ||------------8--||
 ||---------------||
 ||---------------||
 ||---------------||

 ||-----------||
 ||-/9-8-9----||
 ||--------10-||
 ||-----------||
 ||-----------||
 ||-----------||



INTRO:

D#5   A#5    C5          G#5        A#5
                  2a lira:
               ||-----6--6--||
               ||---4-------||
               ||-5---------||
               ||-----------||
               ||-----------||
               ||-----------||

D#5
Cierra los ojos, Cura la herida
A#5
Y busca las cosas que te unen a mi vida
C5                      G#5
Descubrirás que la distancia
     A#5
Puso tierra entre tu y yo

D#5
Llora las noches, con tu sonrisa
A#5
Buscas tu vida en forma de alegría
C5                       G#5
El tiempo pasa y nuestro sueño
     A#5
Cada día es mas real

G#5
Silencios por escuchar
A#5
Canciones que me llenan

D#5
¿Donde irán? Las viejas metas
        G#5          A#5
¿donde irán? las ilusiones
       D#5             G#5   A#5
¿donde irán?.. ¿donde irán?



D#5
Cruza el abismo, Salta sin miedo
A#5
Sabes que no me voy a ir de tu lado
C5                  G#5
tu me sigues donde vaya
    A#5
y yo quiero sentir tus
D#5
manos que escriben, palabras duras
A#5
hechas a golpe de un alma pura
C5                     G#5
el día pasa y nuestro sueño
       A#5
cada minuto es mas real

G#5
Verdades por pelear
A#5
Canciones que me llenan

D#5
¿Donde irán? Las viejas metas
        G#5          A#5
¿donde irán? las ilusiones
       D#5             G#5   A#5
¿donde irán?.. ¿donde irán?

D#5
¿Donde irán? Las viejas metas
        G#5          A#5
¿donde irán? las ilusiones
       D#5             G#5   A#5
¿donde irán?.. ¿donde irán?


        SOLO
                      (--------esto es rapido--------)
 ||------------------||---------6-------------------||
 ||-----4---/8-6p4h6-||-8p6---6---6---6h8p6---------||
 ||-3h5--------------||-----8-------8-------8-/10-8-||
 ||------------------||-----------------------------||
 ||------------------||-----------------------------||
 ||------------------||-----------------------------||

 ||----11----13----15----15-15^r-13-15||
 ||-11----11----11----11--------------||
 ||-----------------------------------||
 ||-----------------------------------||
 ||-----------------------------------||
 ||-----------------------------------||

 ||-15p13----13-------------------||
 ||-------16----16-15-16-15-11-11-||
 ||-------------------------------||
 ||-------------------------------||
 ||-------------------------------||
 ||-------------------------------||


D#5
¿Donde irán? Las viejas metas
        G#5          A#5
¿donde irán? las ilusiones
       D#5             G#5   A#5
¿donde irán?.. ¿donde irán?

D#5
¿Donde irán? Las viejas metas
        G#5          A#5
¿donde irán? las ilusiones
       D#5             G#5   A#5
¿donde irán?.. ¿donde irán?

D#5
¿Donde irán? Las viejas metas
        G#5          A#5
¿donde irán? las ilusiones
       D#5             G#5   A#5
¿donde irán?.. ¿donde irán?

---en la ultima vuelta del coro una lira lleva este arreglillo de fondo---

 ||----------------------------------||
 ||-/4-4-3---3-4-3-4-3---3-4-3-4-3---||
 ||--------3-----------4-----------4-|| varias vueltas hasta k acaba.
 ||----------------------------------||
 ||----------------------------------||
 ||----------------------------------||

bueno pues eso es todo, me salio un poquito largo pero lleva todo lo necesario
para que se escuche bastante bien si la tocan en un grupo. Para los arreglos solo
ponganle oido para checar donde entran. Como siempre saludos a los Black Souls,
y al colectivo GMU: Suplencia, GMU y Sueños Polaroid/Fuszion =P

Fuente original ATAME [www.atame.org]
Colaborador original: Erasto Antonio Espinosa Sosa [eltato68@hotmail.com]

Fuente: tusacordes.com