a b c d e f g h i j k l m n o p q r s t u v w x y z 0-9

Toda De Azul

La 25

			
Nota:

h   :hamer on
p   :pull off
/   :slide
?   :pausa
^    : levantar cuerda
L    : ligar cuerda

*****************************************************************************************

Intro;

1}----------------|----|
2)----------------|----|
3)----------------|----|
4)-2-4-2---4-2-4-2|-X5-|
5)-0-0-0-----0-0-0|----|
6)----------------|----|

1)-5-3-------3-5-3...|-5-3------5-7-5...|--3-3--3-3--3-3?-3-3--3-3-|
2)-5-3-------3-5-3...|-5-3------5-7-5...|--3-3--3-3--3-3?-3-3?-3-3-|
3)-----3h4h5---------|----3h4h5---------|5^---5^---5^---5^---5^----|
4)-------------------|------------------|--------------------------|
5)-------------------|------------------|--------------------------|
6)-------------------|------------------|--------------------------|

A5
sobre tus ojos nena vi la luz
D5
que me atraía hasta tu interior
           E5                           A5
yo quiero verte nena toda vestida de azul

si ese destello que provoca toda mi ansiedad
quiero que me propongas lo que no me das
tus cartas están sin chances puedo ganarte
                                          RIFF 1       RIFF 2
1)------------------|             |-----------------|-------------|
2)------------------|             |-----------------|-------------|
3)-5^^^^^^^^^^5-----|             |-5/7-5-5---------|5/7-5-5------|
4)--------------7...|             |---------7-4...--|--------7...-|
5)------------------|             |-----------------|-------------|
6)------------------|             |-----------------|-------------|

sobre tus ojos nena vi la luz...
que me atraía hasta tu interior
yo quiero verte nena toda vestida de azul


D5                       A5        riff 1
ya lo vez nena sin ti puedo morirme
D5                                 A5 riff 2
sos muy cruel pero tu echizo tomare..
D5                               A5  riff 1
ya lo vez nena sin ti puedo morirme
E5                                       A5
no lo crees demasiado pero sobra para mi..

1)5...-----------------|---5-5?-5-5?-5-5?--------------5-5?-5-5?-5-5|----
2)5...-----------------|---5-5?-5-5?-5-5?--------------5-5?-5-5?-5-5|----
3)----7-5?5-7^L7p5-----|-7^---7^---7^---7^L7p5-----5-7^---7^---7^---|-5-5
4)-------7---------7...|----------------------7---7-----------------|----
5)---------------------|--------------------------------------------|----
6)---------------------|--------------------------------------------|----

1)--------------------------|---------------|------------8-5?-8-5--8^^..
2)--------------------------|---------------|------------7-5?-7-5--7^^..
3)5-5-5-5-5-5-5?-5/7-5-5----|---------------|-------5^^^----------------
4)--------------------7-7...|5/7-5-5...5-5--|---5-7^--------------------
5)--------------------------|-----7-------7-|5-7------------------------
6)--------------------------|---------------|---------------------------

1)----3-3-----5-5-5-5-5-5-5-5-5-5-5-5-5-5-5?---5-5-5-5-5-5-5-5-5-5-5-5-5
2)----3-3-----5-5-5-5-5-5-5-5-5-5-5-5-5-5-5----5-5?5-5-5-5-5-5-5-5-5-5-5
3)7-5-----5^^----------------------------------------------------------
4)----------------------------------------------------------------------
5)----------------------------------------------------------------------
6)----------------------------------------------------------------------

1)5-5-5-5----5-5-5-5-5-5-5-5-5-5-5-5-5-5-5----7-7-7-7-7-7-7-7-7-7-7-7-7-7
2)5-5-5-5----5-5-5-5-5-5-5-5-5-5-5-5-5-5-5----7-7-7-7-7-7-7-7-7-7-7-7-7-7
3)-----------------------------------------------------------------------
4)-----------------------------------------------------------------------
5)-----------------------------------------------------------------------
6)-----------------------------------------------------------------------

1)-7-7-7-7-7-7-7-7-7-7-7-7-7-7--7^^^^^--5-----5----------5-8^...|
2)-7-7-7-7-7-7-7-7-7-7-7-7-7-7----------5h7-7-5----------5-7^...|
3)------------------------------------------7---5...-5-7--------|
4)--------------------------------------------------------------|
5)--------------------------------------------------------------|
6)--------------------------------------------------------------|

E5                         E5
la noche me consume este vodka me hace mal
       E5             E5 E5 E5
tu boca me persigue y ya no se donde estas
D5
vamos nena divertite ya no quiero verte así
A5
tu tapado, vos corriste y ya lo creo q asi
E5                              A5
mi cabeza se derrite con el show

sonre tus ojos nena vi la luz..


1)-------------5...|
2)-5-5-5-5-----5...|
3)-5-5-5-5-5-7-----|
4)-----------------|
5)-----------------|
6)-----------------|
**********************************************************************************
BUeno aca esta me costo un huevo y 1/2 jajaja.. pero al final salio
cualquier correccion o duda hacerla a federnr_la25@hotmail.com
aguante la 25 loco....  mas pasa el tiempo , + 25 soy
con el rock en las venas....

Fuente original ATAME [www.atame.org]
Colaborador original: Federico [federnr_la25@hotmail.com]

Fuente: tusacordes.com