a b c d e f g h i j k l m n o p q r s t u v w x y z 0-9

Sucio Sheriff

La 25

			
intro
e|---------------------|
B|---------------------|
G|---------------------|        <<------ riff base
D|---------3--------3--|
A|---------------------|
E|--1/4--4----4-4-4----|repite


otra guitarra entra despues de 2 veces que
sono el riff base, haciendo:
           G#                    G#
e|---4-4-4-4-4-4-4---|---4-4-4-4-4-4-4---|
B|---4-4-4-4-4-4-4---|---4-4-4-4-4-4-4---|
G|---5-5-5-5-5-5-5---|---5-5-5-5-5-5-5---|
D|---6-6-6-6-6-6-6---|---6-6-6-6-6-6-6---|
A|---6-6-6-6-6-6-6---|---6-6-6-6-6-6-6---|
E|---4-4-4-4-4-4-4---|---4-4-4-4-4-4-4---|

       G#                   C# B G#
e|---4-4-4-4-4-4-4-4-4-4-4-4-4-2-4~~~~---|
B|---4-4-4-4-4-4-4-4-4-4-4-4-6-4-4~~~~---|
G|---5-5-5-5-5-5-5-5-5-5-5-5-6-4-5~~~~---|
D|---6-6-6-6-6-6-6-6-6-6-6-6-6-4-6~~~~---|
A|---6-6-6-6-6-6-6-6-6-6-6-6-4-2-6~~~~---|
E|---4-4-4-4-4-4-4-4-4-4-4-4-4-2-4~~~~---|


El antro esta qumenado    
siniestro ambiente flota    riff
negocios clandestinos      / base
chicas bailan en bolas    /

                                                   D#  C#  D#  C# D#
todo esta muy bueno seria un problema que vos  e|-6-6-4-4-6-6-4-4-6~-| lo revientes ahora
                                               B|-8-8-6-6-8-8-6-6-8~-|
                                               G|-8-8-6-6-8-8-6-6-8~-|
                                               D|-8-8-6-6-8-8-6-6-8~-|
                                               A|-6-6-4-4-6-6-4-4-6~-|
                                               E|-6-6-4-4-6-6-4-4-6~-|


porque se, que tengo que pagar            
llegando a fin de mes tu cuota sale cara   riff base
como confiar en ti si rentas tu chaketa   /

                                     D#  C#  D#  C# D#
te burlaste de todos y ahora se  e|-6-6-4-4-6-6-4-4-6~-| para que vivas muy bien
                                 B|-8-8-6-6-8-8-6-6-8~-|
                                 G|-8-8-6-6-8-8-6-6-8~-|
                                 D|-8-8-6-6-8-8-6-6-8~-|
                                 A|-6-6-4-4-6-6-4-4-6~-|
                                 E|-6-6-4-4-6-6-4-4-6~-|


sucio sheriff sos tan vulnerable                  
hay tan pocos billetes no importa lo que transes    riff
que importa de esta gente                          / base
tu hija lo hace bien                              /

                                          D#  C#  D#  C# D#
bailando es la mas cara en el burdel  e|-6-6-4-4-6-6-4-4-6~-| y ella da mucho placer
                                      B|-8-8-6-6-8-8-6-6-8~-|
                                      G|-8-8-6-6-8-8-6-6-8~-|
                                      D|-8-8-6-6-8-8-6-6-8~-|
                                      A|-6-6-4-4-6-6-4-4-6~-|
                                      E|-6-6-4-4-6-6-4-4-6~-|


pero se que llegas sin demora                   
reventando las puertas como en tiempos de helio  riff base
buscas solo droga impones que es la ley         /

                                D#  C#  D#  C# D#
te la llevas toda para vos  e|-6-6-4-4-6-6-4-4-6~-| uuh
                            B|-8-8-6-6-8-8-6-6-8~-|
                            G|-8-8-6-6-8-8-6-6-8~-|
                            D|-8-8-6-6-8-8-6-6-8~-|
                            A|-6-6-4-4-6-6-4-4-6~-|
                            E|-6-6-4-4-6-6-4-4-6~-|


yo tendré que escapar               
me queda una salida                   riff
tus perros obviare tontos policías   / base
el duende te dejo mala mercancía    /

                  D#  C#  D#  C# D#
y ahora ves!  e|-6-6-4-4-6-6-4-4-6~-| voy a burlarme esta vez
              B|-8-8-6-6-8-8-6-6-8~-|
              G|-8-8-6-6-8-8-6-6-8~-|
              D|-8-8-6-6-8-8-6-6-8~-|
              A|-6-6-4-4-6-6-4-4-6~-|
              E|-6-6-4-4-6-6-4-4-6~-|


      C#       G#       C#       G#
Jajajaja Jajajaja Jajajaja Jajajaja
                   D#  C#  D#  C# D#                      G#
Sucio sheriff  e|-6-6-4-4-6-6-4-4-6~-| voy a burlarme de vos
               B|-8-8-6-6-8-8-6-6-8~-|
               G|-8-8-6-6-8-8-6-6-8~-|
               D|-8-8-6-6-8-8-6-6-8~-|
               A|-6-6-4-4-6-6-4-4-6~-|
               E|-6-6-4-4-6-6-4-4-6~-|

solo
e|--------------|         e|---------------------------------------|
B|--------------|         B|---------------------------------------|
G|--------------| x4      G|---------------------------------------|
D|--------------|         D|---------------------------------------|
A|-2------------|         A|----2--4---2~---2--2-----------2--2----|
E|------4-2-3-4-|         E|--4------------------4-2-4----------4--|

                          e|---------------------------------------|
                          B|---------------------------------------|
                          G|---------------------------------------|
                          D|----------1----------------------------|
                          A|----2----------------4-2------2-4-2----|
                          E|--4---4-2------2--4------4----------4--|

                          e|---------------------------------------|
                          B|----------0------------------0---------|
                          G|-----1-1----3-1---1------1-1---3-1---1-|
                          D|-1-3------------3----1-3-----------3---|
                          A|---------------------------------------|
                          E|---------------------------------------|

                          e|---------------------------------------|
                          B|-----0---------0--------0--------------|
                          G|---1----1--1-1---3-1--1---3-1----------|
                          D|-3----3-----------------------3-1------|
                          A|----------------------------------3----|
                          E|------------------------------------4~-|

                          e|---------------------------------------|
                          B|---------------------------------------|
                          G|---------------------------------------|
                          D|-------------------4-----4-----4-0-----|
                          A|---------------4-6---4-6---4-6-----4-2-|
                          E|-4-4-4--2-2-2--------------------------|

                          e|---------------------------------------|
                          B|---------------------------------------|
                          G|---------------------------------------|
                          D|---------------------------------------|
                          A|----4-2------------2------4~~~~~~~~----|
                          E|--------4-2-4----4---4-----------------|



A#
cambiando de colores no creo que me atrapes
tus buches te han perdido lo supe antes yo
los faroles alumbran el paso de la esquina

                   F     D#  F     D#  F
pero el dulce  e|--8--8-6-6--8--8-6-6--8~-| no te llevas de garron
               B|-10-10-8-8-10-10-8-8-10~-|
               G|-10-10-8-8-10-10-8-8-10~-|
               D|-10-10-8-8-10-10-8-8-10~-|
               A|--8--8-6-6--8--8-6-6--8~-|
               E|--8--8-6-6--8--8-6-6--8~-|

 A#
igual se que llegas sin demora
reventando los ranchos del barrio a cualquier hora
no importa de lo fiel
                                  F     D#  F     D#  F
que sea en tu casa esa mujer  e|--8--8-6-6--8--8-6-6--8~-| es una sucia tambien
                              B|-10-10-8-8-10-10-8-8-10~-|
                              G|-10-10-8-8-10-10-8-8-10~-|
                              D|-10-10-8-8-10-10-8-8-10~-|
                              A|--8--8-6-6--8--8-6-6--8~-|
                              E|--8--8-6-6--8--8-6-6--8~-|


todos saben haces lo que vos quieras
total todos te dejan
te cagas en la gente
sucio polizon todo sigue mal

                                        F     D#  F     D#  F
que importa total de esta sociedad  e|--8--8-6-6--8--8-6-6--8~-| vos no vivis tan mal
                                    B|-10-10-8-8-10-10-8-8-10~-|
                                    G|-10-10-8-8-10-10-8-8-10~-|
                                    D|-10-10-8-8-10-10-8-8-10~-|
                                    A|--8--8-6-6--8--8-6-6--8~-|
                                    E|--8--8-6-6--8--8-6-6--8~-|

          C
y yo tendre que escapar por atrás me queda una salida
     A#
tus perros obviare tontos policias
el duende te dejo mala mercancia
                  F     D#  F     D#  F
y ahora ves!  e|--8--8-6-6--8--8-6-6--8~-| voy a burlarme otra vez
              B|-10-10-8-8-10-10-8-8-10~-|
              G|-10-10-8-8-10-10-8-8-10~-|
              D|-10-10-8-8-10-10-8-8-10~-|
              A|--8--8-6-6--8--8-6-6--8~-|
              E|--8--8-6-6--8--8-6-6--8~-|

D# A# D# A# F D# A#

      D#       A#       D#       A#
Jajajaja Jajajaja Jajajaja Jajajaja
                   F     D#  F     D#  F                       G#
Sucio sheriff  e|--8--8-6-6--8--8-6-6--8~-| voy a burlarme de vos
               B|-10-10-8-8-10-10-8-8-10~-|
               G|-10-10-8-8-10-10-8-8-10~-|
               D|-10-10-8-8-10-10-8-8-10~-|
               A|--8--8-6-6--8--8-6-6--8~-|
               E|--8--8-6-6--8--8-6-6--8~-|

final                         A#
e|----------------------------1--|
B|--3-------------------------3--|
G|----6-4-----2-1-------------3--|
D|----------------4-----2-----3--|
A|------------------------4-2-1--|
E|----------------------------1--|

Fuente original ATAME [www.atame.org]
Colaborador original: Marianito [maro_rnr@hotmail.com]

Fuente: tusacordes.com