a b c d e f g h i j k l m n o p q r s t u v w x y z 0-9

Solo Voy

La 25

			
|----------------------------|
|---------12-----------------|
|--8/13-------13----------11-|             x6
|-----------------13-13------|
|----------------------------|
|----------------------------|

B  E  F#  E   B

 B                      E
Solo voy, solo hoy me siento,
  F#             E            B
Colgando del estribo, siempre voy.
 B                                  E
Cortando calles, sin saber quien cruzará
 F#            E            B
Y dejarme, donde quiera llegar.
 B                            E
Yo no saqué boletos, a este infierno
 F#            E       B
Gentes tristes veo, caminar.
 F#                   B
Mi facultad ha sido, esta calle
 F#               B
Quise ser así como soy.

    B
Y como un perro voy,
Siguiendo el sol,
                 E
Sin saber que hacer,
  B
Más pasa el tiempo,
F#       B
Más 25 soy.



Solo:

|------------------------------------------|
|----------------------5-------------------|
|--6--4------4--6--7------7--6--7--6--4----|
|------------------------------------------|
|------------------------------------------|
|------------------------------------------|

|-------------------------------------------------|
|----------5----------------------5---------------|
|-4--6--7----7--6--7/9--6----6--7---7--6--7?6--4--|
|-------------------------------------------------|
|-------------------------------------------------|
|-------------------------------------------------|

|------------------------------------|
|---------------5--------------------|
|--4--4--6--7------7--6--7--6--4-----|
|------------------------------------|
|------------------------------------|
|------------------------------------|

|----------------------------------------------------|
|---------5--------------------------5---------------|
|-4--6--7----7--6--7-7-7-7-6----6--7---7--6--7?6--4--|
|----------------------------------------------------|
|----------------------------------------------------|
|----------------------------------------------------|

De mí rodar, ya ni sé que se hicieron
Esas cosas que pudieron ser, y que no fueron
Más gentes voy conociendo, más solo me siento
Pero siempre busco esa buena satisfacción
Un nomade soy, y un nuevo lugar buscaré
Y como dije mi camino, seguiré
Mi facultad ha sido, esta calle
Quise ser así como soy.


Y como un perro voy,
Siguiendo el sol,
Sin saber que hacer,
Más pasa el tiempo,
Más 25 soy.


Desde mí rodar, ya ni sé que se hicieron
Esas cosas que pudieron ser, y que no fueron
Más gentes voy conociendo, más quiero a mi perro
Pero siempre busco esa buena satisfacción
Un nomade soy, y un nuevo lugar buscaré
Y como dije mi camino, seguiré
Mi facultad ha sido, esta calle
Quise ser así como soy.


Y como un perro voy,
Siguiendo el sol,
Sin saber que hacer,                        x2
Más pasa el tiempo,
Más 25 soy.

solo

Fuente original ATAME [www.atame.org]
Colaborador original: Gabriel [gabrielgil_kpo@hotmail.com]

Fuente: tusacordes.com