a b c d e f g h i j k l m n o p q r s t u v w x y z 0-9

Quiero 25

La 25

G
C
D
			
Primer solo
e|-------------3-|-------------3-|-------------3-|-5b-5-3---3-5b-|
B|-----3-6p5p3---|-----3-6p5p3---|-----3-6p5p3---|--------5------|
G|-3/4-----------|-3/4-----------|-3/4-----------|---------------|
D|---------------|---------------|---------------|---------------|
A|---------------|---------------|---------------|---------------|
E|---------------|---------------|---------------|---------------|

e|-5-3---3---|----|-------------------|---------------------|
B|-----5-----|----|----3----3---------|-------3-3-----------|
G|---------5-|-5~-|-5b---5b---5br-3---|-------3-3-------3-5-|
D|-----------|----|-----------------5-|-3h4h5-----3h4h5-----|
A|-----------|----|-------------------|---------------------|
E|-----------|----|-------------------|---------------------|

e|---------------------|----3----3-6p5p3-6p5p3-|--------------|
B|----3----3----3----3-|-5b---5b---------------|-5b-5-3---3---|
G|-5b---5b---5b---5b---|-----------------------|--------5---5-|
D|---------------------|-----------------------|--------------|
A|---------------------|-----------------------|--------------|
E|---------------------|-----------------------|--------------|

e|--------|
B|--------|
G|-5b-3---|
D|------5-|
A|--------|
E|--------|

        G
Es un buen poema
      G
me pasaste los tiempos
   G
dijiste que sea
         G
todo un tema lento
      C  C
pero yo
        G    G
quiero rock
        D       C
cuatro mas dos menos
          G   G
y asi empiezo

Es asi como intento
encuadrar estos tiempos
que me rime el momento
cuando dice el amigo
quiero rock
y del mejor
24 horas ya voy
pero yo..
quiero 25

segundo solo
e|-----3----3-------------|-----3-----------|-----3-----------------|
B|------------------------|-2/3-3-3-2-------|-2/3-3-3-2-------------|
G|-5br---5b---5-3-5br-3---|-----------5-3---|-----------5-3---3-5br-|
D|----------------------5-|---------------5-|---------------5-------|
A|------------------------|-----------------|-----------------------|
E|------------------------|-----------------|-----------------------|

e|---------------8-|---------------8-|-----3-----------------|
B|-----8-11p10p8---|-----8-11p10p8---|-2/3-3-3-2-------------|
G|-7/9-------------|-7/9-------------|-----------5-3---3-5br-|
D|-----------------|-----------------|---------------5-------|
A|-----------------|-----------------|-----------------------|
E|-----------------|-----------------|-----------------------|

e|---------------------|----3----3-6p5p3-6p5p3-|--------------|
B|----3----3----3----3-|-5b---5b---------------|-5b-5-3---3---|
G|-5b---5b---5b---5b---|-----------------------|--------5---5-|
D|---------------------|-----------------------|--------------|
A|---------------------|-----------------------|--------------|
E|---------------------|-----------------------|--------------|

e|--------|
B|--------|
G|-5b-3---|
D|------5-|
A|--------|
E|--------|

Que dificil se hace
encontra las palabra
que te rime el acento
cuando terminás
no hay caltes que indiquen
el final de la frase
sólo cuenta ena historia
que sea real
y verás, alguien entenderá.

Ya no quiero escuchar
más palabras raras
sólo quiero que canten
lo que puedo sentir
yo no sé
donde vas
24 horas más voy
pero yo..
quiero 25

Repite el segundo solo

Ya no es un poema
y son otros tiempos
verás tus piernas
como moverás, solo dirás
que sea rock
24 horas ya voy
pero yo..
quiero 25

sobre este tercer solo repite Quiero 25.
e|-----3-----------|-----3-----------------|
B|-2/3-3-3-2-------|-2/3-3-3-2-------------|
G|-----------5-3---|-----------5-3---3-5br-|
D|---------------5-|---------------5-------|
A|-----------------|-----------------------|
E|-----------------|-----------------------|

e|---------------8-|---------------8-|
B|-----8-11p10p8---|-----8-11p10p8---|
G|-7/9-------------|-7/9-------------|
D|-----------------|-----------------|
A|-----------------|-----------------|
E|-----------------|-----------------|

e|---------------8-|---------------8-|
B|-----8-11p10p8---|-----8-11p10p8---|
G|-7/9-------------|-7/9-------------|
D|-----------------|-----------------|
A|-----------------|-----------------|
E|-----------------|-----------------|

e|-----3-----------|-----3-----------|
B|-2/3-3-3-2-------|-2/3-3-3-2-------|
G|-----------5-3---|-----------5-3---|
D|---------------5-|---------------5-|
A|-----------------|-----------------|
E|-----------------|-----------------|

e|-12-12-12-12-12-12-12-|-12-12-12-12-12-12-12-|
B|-13-13-13-13-13-13-13-|-13-13-13-13-13-13-13-|
G|-12-12-12-12-12-12-12-|-12-12-12-12-12-12-12-|
D|----------------------|----------------------|
A|----------------------|----------------------|
E|----------------------|----------------------|

e|-12-12-12-12-12-12-12-|-12-12-12-12-12-12-12-|
B|-13-13-13-13-13-13-13-|-13-13-13-13-13-13-13-|
G|-12-12-12-12-12-12-12-|-12-12-12-12-12-12-12-|
D|----------------------|----------------------|
A|----------------------|----------------------|
E|----------------------|----------------------||

e|-----3-----------|-----3-----------|
B|-2/3---3-2-------|-2/3---3-2-------|
G|-----------5-3---|-----------5-3---|
D|---------------5-|---------------5-|
A|-----------------|-----------------|
E|-----------------|-----------------|

24 horas ya voy pero yo..
e|---6p5p3-6p5p3-6-|---6p5p3-6p5p3-8-|-3-3-3--3-|
B|-3---------------|-3---------------|-3-3-3--3-|
G|-----------------|-----------------|-3-3-3--3-|
D|-----------------|-----------------|----------|
A|-----------------|-----------------|----------|
E|-----------------|-----------------|----------|

Quiero 25
e|-3---|
B|-3---|
G|-3---|
D|-----|
A|---5-|
E|---3-|


Nota: Donde dice G, C o D no son los comunes acordes de Sol, Do y Re sino que son las 5tas
alternadas con las 6tas.

SolG
e|------------------|
B|------------------|
G|------------------|
D|------------------|
A|-5-5-7-5--5-5-7-5-|
E|-3-3-3-3--3-3-3-3-|

DoC
e|------------------|
B|------------------|
G|------------------|
D|-5-5-7-5--5-5-7-5-|
A|-3-3-3-3--3-3-3-3-|
E|------------------|

ReD
e|------------------|
B|------------------|
G|------------------|
D|-7-7-9-7--7-7-9-7-|
A|-5-5-5-5--5-5-5-5-|
E|------------------|

O también otra manera es como hacían los Stones cambiando la afinación de la guitarra y el
acorde ya no es 5ta, aparte de las 6tas se le aumenta la 4tas.

SolG
e |-3--3-3-3-3-3-|
B |-3--3-3-3-3-3-|
G#|-3--4-4-3-3-3-|
E |-3--3-3-3-3-3-|
B |-3--5-5-3-3-3-|
E |-3--3-3-3-3-3-|

DoC
e |-8--8--8--8-8-8-|
B |-8--8--8--8-8-8-|
G#|-8--9--9--8-8-8-|
E |-8--8--8--8-8-8-|
B |-8--10-10-8-8-8-|
E |-8--8--8--8-8-8-|

ReD
e |-10--10-10-10-10-10-|
B |-10--10-10-10-10-10-|
G#|-10--11-11-10-10-10-|
E |-10--10-10-10-10-10-|
B |-10--12-12-10-10-10-|
E |-10--10-10-10-10-10-|

Si todavía no están muy cancheros con el Rock and Roll, mejor usen las primera forma ya que
si usan las segunda van a tener que transportar el solo en las cuerdas que cambiaron las
afinación.
Así esta re bien para tocar pero si necisitan lo que hace la guitarra de fondo escriban así
se los transcribo.
Mucha suerte.

Fuente original ATAME [www.atame.org]
Colaborador original: Fachu Fernández [fachu_fernandez@hotmail.com]

Fuente: tusacordes.com