a b c d e f g h i j k l m n o p q r s t u v w x y z 0-9

Quiero 25

La 25

			
escuchenla para sacarla es una boludes!!!es algo asi!

intro:

1-------------------|
2-------------------|
3--------------2-3-5|
4-3---3---3--3------|

versos:
1------------|------------|------------|------------|
2------------|------------|------------|------------|
3----22-33-55|----22-33-55|----22-33-55|----22-33-55|
4-33---------|-33---------|-33---------|-33---------|

1------------|------------|------------|------------|
2----22-33-55|----22-33-55|------------|------------|              
3-33---------|-33---------|----22-33-55|----22-33-55|
4------------|------------|-33---------|-33---------|

1------------|------------|------------|------------|
2----44-55-77|----22-33-55|------------|------------|
3-55---------|-33---------|----22-33-55|----2--3--5-|
4------------|------------|-33---------|-3----------|


le quiero mandar saludos a todos los pibes 
del mons stillo a bruno, nico, luchi, marcelo, y emiliano
y a Agustin, tomas, boti muerto, y a pablo de lugano.
aguante la 25. loco sigan mandando temas de la 25
se la dedico al puto de rickyto que esta re creido.

Fuente original ATAME [www.atame.org]
Colaborador original: Adrian gutierrez [correodeadrian@hotmail.com]

Fuente: tusacordes.com