a b c d e f g h i j k l m n o p q r s t u v w x y z 0-9

Que Algo Vuelva A Suceder

La 25

			
e|-3-3-2--------------2--2-2-3-3-2-----------2-2-1/2-2-2-1/2-2-2-1/2--|
B|-3-3-3--------------3--3-3-3-3-3-----------3-3-2/3-3-3-2/3-3-3-2/3--|
G|-----------2-4-2----2--2-2-2-2-2-----2-4-2-2-2-1/2-2-2-1/2-2-2-1/2--|
D|-------2h4-----------------------2h4--------------------------------|
A|--------------------------------------------------------------------|
E|--------------------------------------------------------------------|

 D
Empezaremos por el final
             G 
y sera el comienzo
           D         A         D
tu sangre vino por mi hasta aqui.


Mi calavera ya vieja
siempre llegara caminando
en busca de aquellos recuerdos olvidados alla.

La cancion mas triste 
siempre quedo a mi lado
esperando que algo vuelva a suceder.

 D
Si todo va a estar bien
      A
fue aquel final
            G
tu llanto trajo la cruz mas negra
     D          A             D
de nueva orleans, de nueva orleans


Las fabricas despiertas
la noche no alcanzo
mis botas se doblaron 
y asi la quedo.

 G D A D   x2

 D
El humo de las velas 
       G
no me deja respirar
       A                             D
veo tu cara lleva el blues de nueva orleans.

Ahogando los recuerdos
voy combinando mil sonidos
van formando la figura que olvide

Piedras quemando mis pies
cenizas veo caer
y en ellas calendarios correr

Y esto ya se acaba 
se que debo marchar 
y que otra vez sera

Chau 
jejeje

       D
La cancion mas triste yace junto a mi
       G              D
va quedando sin palabras 
  A G                A              D
esperando que alvo vuelva a suceder.


e|--3-3-3--1/2---|
B|--3-3-3--2/3---|
G|--2-2-2--1/3---|
D|---------------|
A|---------------|
E|---------------|

Fuente original ATAME [www.atame.org]
Colaborador original: Pioj0so25 [brunito_fc@hotmail.com]

Fuente: tusacordes.com