a b c d e f g h i j k l m n o p q r s t u v w x y z 0-9

Mil Canciones

La 25

			
Nota
^   : levantar la cuerda
L   : ligado
p   : pull off
v   : vibrato
  : subir o bajar la cuerda según lo indique el N° que esta dentro del él.
... : pausa
/   : slide

**********************************************************************************************

Intro  C G B C  G D
                    C C    C G G    G B B    B C C     C G G     G D D
1)----------------|-------|--3-3...|3-------|--------|---3-3...|-3-2-2...
2)----------------|-1-1...|1-3-3...|3-------|--1-1...|-1-3-3...|-3-3-3...
3)-------2v...----|-------|--------|--4-4...|4-------|---------|---2-2...
4)-0-2-4-------4-2|-2-2...|2-------|--4-4...|4-2-2...|-2-------|---------
5)----------------|-3-3...|3-2-2...|2-2-2...|2-3-3...|-3-2-2...|-2-------
6)----------------|-------|--3-3...|3-------|--------|---3-3...|-3-------

1)-2-3-2-|-----------------|
2)-3-3-3-|-----------------|
3)-2-2-2-|-2(1)------------|
4)-------|-----4-2...-0-2-4|
5)-------|-----------------|
6)-------|-----------------|

G                             C   C
CUANDO LA TIERRA ESTE EN MI PIES
B		           C
Y EN MI SENDERO VUELVA LA LUZ
G		     C
LLEGARE HASTA ESTE LUGAR
B		     C
ME PARECE HE ESTADO AYER
G			      C
SENTADO ESPERO QUE ALGUIEN LLEGUE
B			     C
EL MISMO AMIGO QUE NUNCA SE FUE
G			C
PICANDO FASO ENTRE HISTORIAS
B			C
AHORA ESCUCHO MUSICA GOSPEL
Em			D
EL MISMO VIEJO SALE Y DICE
C			D
HACE MUCHO QUE NO ANDAIS
             C       Em
Y MIENTRAS VOY
D	          G
DESPIDIENDO UN AMIGO
D				G
QUE TENGAS UNA BUENA VIDA HERMANO
D			G
VOY A AÑORARTE HASTA MORIR
D			G
SI ME PARECE HABER ESTADO AYER
D				G
O FUERON MIL CANCIONES Y UNA MAS
C				G
CUANDO MI  SOMBRA ESTE EN LA LUZ
G		     C
Y NADA QUEDE POR HACER
C	          G
LLEGARE A ESTE LUGAR
G			C
ME PARECE HE ESTADO AYER
C		  G
ME DIRAS CUANTO PASO
G                           D    G
O FUERON MIL CANCIONES Y UNA MAS


SOLO DE SAXO
BASE: G G G   D   G   G G G D   G   G G G C  G    D D    G


G			      C
UN JUICIO JUSTO NO QUIERO TENER
B			          C
PASADO EL TIEMPO MUCHO ME EQUIVOQUE
G				C
MIEDO TENGO QUE ESTA VIDA UN DIA
B				C
VENGA A COBRARSE LO BUENA QUE FUE

1)-------------------------|
2)-------------------------|
3)-------------------------|
4)------12-14^L14-12-----12|
5)-12-14-------------14----|
6)-------------------------|

G				C
HISTORIAS BUENAS, HISTORIAS NUEVAS
B	                    C
RECUERDO SIEMPRE DIAS DEL AYER
G			C
MANDALE CHISPAS Y SIGAMOS
B			C
TAL VEZ HAY ALGO QUE OLVIDE
Em			D
LA CHICA YA NO VIVE AHI
C			D
EL CIELO ESTA LOZA CUBRIO
                 C    Em
Y  MIENTRAS PIENSO
D		G
SE DESPIDE UN AMIGO

QUE TENGAS UN BUENA VIDA MEN...
SOLO DE ARMONICA
BASE: G G G   D   G   G G G D   G   G G G C  G    D D

1)------------|-----------|-----------|-----------------------------|
2)------------|-----------|-----------|-----------------------------|
3)-------12...|------12...|------14...|-----------------------------|
4)-12/14------|12/14------|12/14------|-14-12---12------------------|
5)------------|-----------|-----------|-------14?-14-14/12?-14v...--|
6)------------|-----------|-----------|-----------------------------|

BUENO ACA ESTA COSTO PERO SALIO, cualquier duda o sugerencia hacerla a federnr_la25@hotmail.com
aguante la 25!

Fuente original ATAME [www.atame.org]
Colaborador original: Federico [federnr_la25@hotmail.com]

Fuente: tusacordes.com