a b c d e f g h i j k l m n o p q r s t u v w x y z 0-9

La 25

La 25

A
F#m
B
E
D
			
LA 25
Intro:

e|------0-0-0-0------0-0-0-0-|--2-2-2-2-2-3-2-3-2-2-3-|-
B|--1/2-3-2-2-2--1/2-3-2-2-2-|--3-3-3-3-3-3-3-3-3-3-3-|-
G|--1/2-2-2-2-2--1/2-2-2-2-2-|--2-2-2-2-2-2-2-2-2-2-2-|-
D|--1/2-2-2-2-2--1/2-2-2-2-2-|--0-0-0-0-0-0-0-0-0-0-0-|-
A|---------------------------|------------------------|-
E|---------------------------|------------------------|-

e|--0-0-0-0-0-0-0-0-0-0-0-|-
B|--0-0-0-0-0-2-0-2-0-0-2-|-
G|--1-1-1-1-1-1-1-1-1-1-1-|-
D|--2-2-2-2-2-2-2-2-2-2-2-|-
A|--2-2-2-2-2-2-2-2-2-2-2-|-
E|--0-0-0-0-0-0-0-0-0-0-0-|-

Acompañamiento con armónica:  A F#m B E x2

        A                     F#m
Todo pasó y ahora se que esta vida me enseño
   B                             E
pasarla bien muchas veces no es lo mejor
               A                     F#m
después de un largo tiempo de vagar una guitarra me dio
   B                        E
daré de mi lo mejor y tu recuerdo será sensación con vos

         A                D
Vagando así te conocí, vagando te perdí
    A        E                   A 
yo seguiré este camino hasta el fin


Acompañamiento con armónica: F#m B E A F#m B E


Si después de tiempo ya no estas y de tu camino estarás lejos
la 25 llevarás dondequiera que estés y en cualquier lugar
si vieja y tirada quedo, ya no puedes preguntarle que haremos
vendrás por mi una vez mas y otra vez estaré en el show con vos

         A                D
Vagando así te conocí, vagando te perdí
    A        E                   A 
yo seguiré este camino hasta el fin  jeje

         A                D
Vagando así te conocí, vagando te perdí
    A        E                   A 
yo seguiré este camino hasta el fin
     D     E                   A 
yo seguiré mi camino hasta el fin

AGUANTE LA 25!!!!!!!

PUNTA ALTA

                                                                    Aníbal#87___________

Fuente original ATAME [www.atame.org]
Colaborador original: Anibal Ferrofino [anibal69_87@hotmail.com]

Fuente: tusacordes.com